Praise Tabs
Sorted by song name ("Amazing Grace")
A|B|C|D|E|F|G|H|I|J|K|L|M|N|O|P|Q|R|S|T|U|V|W|X|Y|Z

Join Us Today!

Don't strum alone...
be a part of the largest online Christian music community. Browse thousands of guitar tabs and chat w/ musicians like yourself.


It's Free!


Jehovah Jireh



#This file is the author's own work and represents their interpretation of the#
#song. You may only use this file for private study, scholarship, or research.#
#-----------------------------------------------------------------------------#
#-- File created with Instab - http://www.pconline.com/~smcarey/instab.html --#
#-----------------------------------------------------------------------------#

Author/Artist: Beats Me
Title: Jehovah Jireh
Transcribed by: Matt Gates
Email: aslane@juno.com

This is a metal version of the popular praise song "Jehovah Jireh".  None of thi
s is by me except for the 
verse music.  God has given me this really weird gift to be able to take parts o
f popular songs and put them
 into praise songs. This song's intro is taken directly from a Metallica song ca
lled "Enter Sandman".  A
 little disclaimer here I personally don't listen to them (Metallica) anymore, b
ut I find it helpful in my study
 of guitar to learn all kinds of music to give myself a wider base of creativity
.  The solo is from a Grammatrain 
song called "Need".  

------||------------------------------|------------------------------|--------
------||------------------------------|------------------------------|--------
------||------------------------------|------------------------------|--------
------||-----5------------------------|------5-----------------------|-----5--
------||-7------------------7---------|--7-------------------7-------|-7------
---0--||----------6---5-----------0---|------------6---5----------0--|--------
 Intro:  Clean Electric w/chorus if possible.  Let each note ring.            

-------------------------||-----0-----------------|----|----------------------
-------------------------||-----0-----------------|----|----------------------
-------------------------||-----0-----------------|----|----------------------
-------------------------||-----2-----------------|----|----------------------
---------------7---------||-----------------------|-2--|--2-/7------------2---
----6----5------------0--||-----------------------|-0--|--0-----6--5----0-0---
                           repeat to 2nd double bar(C)Distortion pm------     

-|-------------------------|-------------------------|------------------|-----
-|-------------------------|-------------------------|------------------|-----
-|-------------------------|-------------------------|------------------|-----
-|-------------------------|-------------------------|------------------|-----
-|-2-/7-----------------2--|--2-/7-----------------5-|-----4---4-5-4-2--|-----
-|-0--------6--5-----0--0--|--0-------6---5-----0--3-|---0-2-0-2-3-2-0--|-----
             pm-------                 pm---------       pm---------- repeat  

-||----------------------------|----------------------------|-----------------
-||----------------------------|----------------------------|-----------------
-||----------------------------|----------------------------|-5--5--5---5-5---
-||-2--2--2--2222--2--2---2-2--|--7--7--7--7777--7--7---7-7-|-5--5--5---5-5---
-||-2--2--2--2222--2--2---2-2--|--7--7--7--7777--7--7---7-7-|-3--3--3---3-3---
-||-0--0--0--0000--0--0---0-0--|--5--5--5--5555--5--5---5-5-|-----------------
 pm chorus off--------------------------------------------------------------- 

---------------------|-----------------------|--------------------------------
---------------------|-----------------------|--------------------------------
--5/7---7--7--7-7--7/|9--9--9--9--9-9--------|--------------------------------
--5/7---7--7--7-7--7/|9--9--9--9--9-9--------|--------------------------------
--3/5---5--5--5-5--5/|7--7--7--7--7-7-----12\|--------------------------------
---------------------|--------------------12\|--------------------------------
 pm--------------------------------- repeat and then use for verse section 1: 

------------------|----------------------|--------------------|---------------
------------------|----------------------|--------------------|---------------
------------------|-9--9--9--x-9-9-x-9---|--------------------|---------------
------------------|-9--9--9--x-9-9-x-9---|-7--7--7--x-7-7-x-7-|-7--7--7--x-7--
------------------|-7--7--7--x-7-7-x-7---|-7--7--7--x-7-7-x-7-|-7--7--7--x-7--
------------------|----------------------|-5--5--5--x-5-5-x-5-|-5--5--5--x-5--
 verse section 2:                                                             

--------|------------------------|----------------------|------------------|--
--------|------------------------|----------------------|------------------|--
--------|-9--9--9--x-x-----------|-9--9--9--x-9-9-x-9---|------------------|--
--7-x-7-|-9--9--9--x-x-9--9-9--9-|-9--9--9--x-9-9-x-9---|-7--7--7-x-7-7-x-7|--
--7-x-7-|-7--7--7--x-x-9--9-9--9-|-7--7--7--x-7-7-x-7---|-7--7--7-x-7-7-x-7|--
--5-x-5-|--------------7--7-7--7-|----------------------|-5--5--5-x-5-5-x-5|--
                                                                              

-------------------------|---------------------||------------------------|----
-------------------------|---------------------||------------------------|----
--5--5--5--x-x-7--7-7--7-|--9---9---9---9--9---||------5-------7-----9---|----
--5--5--5--x-x-7--7-7--7-|--9---9---9---9--9---||------5-------7-----9---|----
--3--3--3--x-x-5--5-5--5-|--7---7---7---7--7---||------3-------5-----7---|----
-------------------------|---------------------||------------------------|----
      2nd time through skip bridge and go to (S) Bridge solo chords. Play x4  

----------------------------|----------------------|----------------------|---
----------------------------|----------------------|----------------------|---
----------------------------|----------------------|----------------------|---
----------------------------|----------------------|-------------7---7--7-|---
----------------------------|-7---7--7--7/9---9--9-|10---10--10-----------|---
-----8----8--10--10--10--10-|----------------------|----------------------|---
 Bridge solo w/ chords played under on another guitar.                        

---------------------------------|--------------------------|-----------------
---------------------------------|-8--10b12r10vvv---8--10b12|-10b12--10p8h10--
---------7--9b11r9p7-----7--9vvvv|--------------------------|-----------------
--9--9-9--------------9----------|--------------------------|-----------------
---------------------------------|--------------------------|-----------------
---------------------------------|--------------------------|-----------------
                                                                              

-----8-----8---|-8--10--8-------8--8--8\--|----------------------------|------
--8--8--8--8--8|-8----------10--8--8--8\--|----------------------------|------
---------------|--------------------------|----------------------------|------
---------------|--------------------------|----------------------------|------
---------------|--------------------------|----------------------------|------
---------------|--------------------------|----8----8--10--10--10--10--|------
                       Go back to Coda (C) End solo (S) Chord progression     

---------------------------------|---------------------------------|----------
---------------------------------|---------------------------------|----------
---------------------------------|-------------------7--9b11r9p7---|--7--9vv--
---------------------------------|--7-7-7-7--9---9-9--------------9|----------
--7-7--7--7/9-9--9-9-10-10-10-10-|---------------------------------|----------
---------------------------------|---------------------------------|----------
 same as bridge x about 22                                                    

--|--------------------------10--------10-------|----8-----8-----8--10--8-----
--|---8--10b12r10--8--10b12-----10b12----pb12r10|-8--8--8--8--8--8--------10--
--|---------------------------------------------|-----------------------------
--|---------------------------------------------|-----------------------------
--|---------------------------------------------|-----------------------------
--|---------------------------------------------|-----------------------------
                                                                              

--8--8--8\-|-------------------------------|----------------------------|-----
--8--8--8\-|--/13--13--13--13------13------|----------------------------|-----
-----------|-------------------14------14\-|-/13--13-13-13--14--13------|-----
-----------|-------------------------------|------------------------14\-|-----
-----------|-------------------------------|----------------------------|-----
-----------|-------------------------------|----------------------------|-----
                                                                              

--------------------------|----------------------------------|----------------
--------------------------|----------------------------------|----------------
--------------------------|----------------------------------|----------------
--------------------------|-----------14-------------14------|----------------
--/15--15--15--15--15--15-|15\11/12-------12--14vv-------14\-|--7vvvvv-----5--
--------------------------|----------------------------------|---------5h7----
                                                                              

--------------------------|---------------------------------------------------
--------------------------|---------------------------------------------11----
--------------------------|--9vvvv-----------9-------9vvvv--9--12--9-12---12--
-----7-7-7-7b8r7--5--7p5--|---------10---12-----12----------------------------
--7-----------------------|---------------------------------------------------
--------------------------|---------------------------------------------------
                                                                              

-|-----12----15----12----15----12----15----12----|------------------------|---
-|-/13----13----13----13----13----13----13----13\|------------------------|---
-|-----------------------------------------------|------------------------|---
-|-----------------------------------------------|------------------------|---
-|-----------------------------------------------|------------------------|---
-|-----------------------------------------------|-8-8-8-8-10--10--10--10-|---
                                                   pm----------------------   

------------------------|---------------------------|-----------------------|-
------------------------|---------------------------|-----------------------|-
------------------------|---------------------------|-----------------------|-
------------------------|----------------7--7--7--7-|9--9-9-9--9-9-9-9-9-9-9|-
-7--7--7--7--9--9--9--9-|10--10--10--10-------------|-----------------------|-
------------------------|---------------------------|-----------------------|-
 pm-----------------------------------------------                            

----------------------------------------------------|-------------------------
----------------------------------------------------|-------------------------
--------------------9-----9------------9------------|--5--5-5-5-5--5--5/9-----
--------------9h12-----9-----12vvv--9-----12--9-----|--5--5-5-5-5--5--5/9-----
-------------------------------------------------12-|--3--3-3-3-3--3--3/7-----
-12vvvvvvvvvv---------------------------------------|-------------------------
                                    pm-------------                           

----------|--------12---------12--------12--------12---12-----12---12---|-----
----------|-15b17------15b17-----15b17-----15b17-------15b17--17---17---|-----
--9--9--9-|-------------------------------------------------------------|-----
--9--9--9-|-------------------------------------------------------------|-----
--7--7--7-|-------------------------------------------------------------|-----
----------|-------------------------------------------------------------|-----
                                                        hold bend----         

------------------------------------------------------------------------------
--15b17--15--12--15--12------12-----------------------------------------------
-------------------------14------14b16--14--12--14--12------12--14b16---------
--------------------------------------------------------14--------------------
------------------------------------------------------------------------------
------------------------------------------------------------------------------
  fast----------------------------------------------------------------------- 

-----------------------------------|-------10--10--10------10--10--10-----10--
-----------------------------------|---12--12--12--12--12--12--12--12--12-12--
-12h14p12-----12------------12-----|------------------------------------------
-----------14----14--12*14------14-|------------------------------------------
-----------------------------------|------------------------------------------
-----------------------------------|------------------------------------------
 fast-----------------------------                                            

-10--10--|-----------------------|-----------12----15----12----15----12-------
-12--12--|-12--------------------|-13-----13----13----13----13----13----13----
---------|-----14--12---------12-|-----12-------------------------------------
---------|------------14--14-----|--------------------------------------------
---------|-----------------------|--------------------------------------------
---------|-----------------------|--------------------------------------------
         fast------------------      slow exaggerated                         

-15----12----15----12\-|------------------|------------------|----------------
----13----13----13-----|------------------|------------------|----------------
-----------------------|--5-5-5-5-5-5-5-5-|--9-9-9-9-9-9-9-9-|5-5-5-5-5-5-5---
-----------------------|--5-5-5-5-5-5-5-5-|--9-9-9-9-9-9-9-9-|5-5-5-5-5-5-5---
-----------------------|--3-3-3-3-3-3-3-3-|--7-7-7-7-7-7-7-7-|3-3-3-3-3-3-3---
-----------------------|------------------|------------------|----------------
                          pm------------------------------------------------  

---|-----------------|-----------------|-----------------|-----------------|--
---|-----------------|-----------------|-----------------|-----------------|--
-5-|-9-9-9-9-9-9-9-9-|-5-5-5-5-5-5-5-5-|-9-9-9-9-9-9-9-9-|-5-5-5-5-5-5-5-5-|--
-5-|-9-9-9-9-9-9-9-9-|-5-5-5-5-5-5-5-5-|-9-9-9-9-9-9-9-9-|-5-5-5-5-5-5-5-5-|--
-3-|-7-7-7-7-7-7-7-7-|-3-3-3-3-3-3-3-3-|-7-7-7-7-7-7-7-7-|-3-3-3-3-3-3-3-3-|--
---|-----------------|-----------------|-----------------|-----------------|--
 pm-----------------------------------------------------------------------    

------------------------|-----------------------------------------------------
------------------------|-----------------------------------------------------
--9vvvvvvvvvvvvvvvvvvvv-|-----------------------------------------------------
--9vvvvvvvvvvvvvvvvvvvv-|-----------------------------------------------------
--7vvvvvvvvvvvvvvvvvvvv-|-----------------------------------------------------
------------------------|-----------------------------------------------------



Complimentary Christian Ringtones
Dadamobile and CGR have teamed up to bring your favorite Christian artists right to your phone. Sign up today and get 10 complementary ringtones!
Tab Country
Did you know CGR has a sister site w/ country guitar tabs? Well we do! Its called Tab Country. It has a great archive with a lot of country tabs.
Rockin Tabs
Are you looking for a site that has rock guitar tabs? Then Rockintabs.com is the place for you. It is a budding site with many rock guitar tabs. Submit your tab today.
Tab Gallery
Tab Gallery has a compilation of christian, rock, and country tabs all in one place. Come visit us.