Praise Tabs
Sorted by song name ("Amazing Grace")
A|B|C|D|E|F|G|H|I|J|K|L|M|N|O|P|Q|R|S|T|U|V|W|X|Y|Z

Join Us Today!

Don't strum alone...
be a part of the largest online Christian music community. Browse thousands of guitar tabs and chat w/ musicians like yourself.


It's Free!


Rudolph the Red Nosed Reindeer



Title: Rudolph the Red-Nosed Reindeer

e|--------|---------------------|------------------|
B|-----0--|--1---------0--------|------------------|
G|--2-----|--2--2------0--0-----|--2---------2--0--|
D|--------|--3-----3---2-----2--|--3--3------2-----|    (repeat last
A|--------|---------------------|--5-----5---3-----|     2 stanzas)
E|--------|---------------------|------------------|

  You Know  Dasher +  Dancer +    Prancer + Vixen
            Comet  +  Cupid  +    Donner  + Blitzen


|-----------------|---------------|------------------|-------------------|
|-----------------|---------------|------------------|-------------------|
|-----------------|--2------2--4--|--5--5---5--4--2--|-0------0----------|
|--2---2---2---2--|--2------2-----|--4------4--------|-0------3----------|
|--3-------3------|--3------------|--5------5--------|-2------2----------|
|--5-------5------|---------------|------------------|--------3----------|

   But do you re-  call   the most famous reindeer of  all?


|--------------------|-----------|---------------------|-----------------|
|-----------------1--|-----------|------------------1--|---0-------------|
|--0---2---0---------|--2----0---|--0--2--0--2--0---2--|---0-------------|
|--2-----------2-----|--2--------|--2-----------2---1--|---0-------------|
|--3-----------3-----|--3--------|--3-----------3------|-----------------|
|--------------3-----|-----------|---------------------|-----------------|

  Rudolph the red nosed reindeer,  had a ver-y shin-y     nose


|-------------------|----------|-------------------------|---------------|
|----------------0--|----------|-------------------------|---------------|
|-----0-------------|--2----0--|--0---2---0---2---0---2--|---0-----------|
|--3-----3---0------|--0-------|--0---------------1------|---2-----------|
|--2---------2------|--2-------|--2---------------2------|---3-----------|
|--3---------3------|----------|-------------------------|---------------|

 And if you  ev--er    saw  it, you would ev-en  say  it   glows


|--------------------|-----------|------------------------|--------------|
|-----------------1--|-----------|---------------------1--|---0----------|
|--0---2---0---------|--2----0---|--0--2---0----2--0---2--|---0----------|
|--2-----------2-----|--2--------|--2--------------2---1--|---0----------|
|--3-----------3-----|--3--------|--3--------------3------|--------------|
|--------------3-----|-----------|------------------------|--------------|

  All of  the  other    reindeer  used to laugh + call him  names


|-------------------|----------|-------------------------|---------------|
|----------------0--|----------|----------------------3--|---1-----1-----|
|-----0-------------|--2----0--|--0---2---0---2----------|---0-----3-----|
|--3-----3---0------|--0-------|--0---------------0------|---2-----2-----|
|--2---------2------|--2-------|--2---------------2------|---------3-----|
|--3---------3------|----------|------------------3------|---------------|

 They never let poor   Rudolph   join in   any    reindeer  games


|-----------------|---------------|----------------|---------------------|
|----------1------|---------------|----------------|---------2-----------|
|--2---2---2---2--|--0---------0--|-----2---0------|---------3-----------|
|--3-------3------|--2----2----2--|--3------0---3--|--2------2-----------|
|--3--------------|--3---------3--|--5------2------|--3------------------|
|-----------------|---------------|----------------|--3------------------|

 Then one  fogg-y   Christmas  eve   Santa came to   say


|-----------------|---------------|--------------------|-----------------|
|-----------------|--0---0---0----|--1----1----0-------|-----------------|
|----------0---2--|--0-------1----|--0---------2----2--|--0--------------|
|--0---2---0------|--0-------0----|--2---------0-------|--0----3----0----|
|--2-------2------|---------------|--0-----------------|--2---------2----|
|--3--------------|---------------|--------------------|------------3----|

  Rudolph with your nose so bright  Won't you guide my  sleigh tonight?


|--------------------|-----------|--------------------------|------------|
|-----------------1--|-----------|-----------------------1--|---0--------|
|--0---2---0---------|--2----0---|--0---2---0---2---0----2--|---0--------|
|--2-----------2-----|--2--------|--2---------------2----1--|---0--------|
|--3-----------3-----|--3--------|--3---------------3-------|------------|
|--------------3-----|-----------|--------------------------|------------|

 Then how the reindeer loved him   as they shouted  out with   glee


|----------------------|----------|--------------------------|--0--------|
|-------------------0--|----------|-----------------------3--|--1--------|
|------0---------------|--2----0--|--0----2---0---2---0---0--|--0--------|
|--3-------3---0-------|--3-------|--0----------------0---0--|--2--------|
|--2-----------2-------|--2-------|--2----------------2---2--|--3--------|
|--3-----------3-------|----------|-------------------3------|-----------|

  Rudolph the red nosed  reindeer  you'll go down in his--to---ry!



Complimentary Christian Ringtones
Dadamobile and CGR have teamed up to bring your favorite Christian artists right to your phone. Sign up today and get 10 complementary ringtones!
Tab Country
Did you know CGR has a sister site w/ country guitar tabs? Well we do! Its called Tab Country. It has a great archive with a lot of country tabs.
Rockin Tabs
Are you looking for a site that has rock guitar tabs? Then Rockintabs.com is the place for you. It is a budding site with many rock guitar tabs. Submit your tab today.
Tab Gallery
Tab Gallery has a compilation of christian, rock, and country tabs all in one place. Come visit us.