Praise Tabs
Sorted by song name ("Amazing Grace")
A|B|C|D|E|F|G|H|I|J|K|L|M|N|O|P|Q|R|S|T|U|V|W|X|Y|Z

Join Us Today!

Don't strum alone...
be a part of the largest online Christian music community. Browse thousands of guitar tabs and chat w/ musicians like yourself.


It's Free!


Silent Night



I really enjoy this version of silent night.


E |-0--2--0--|-----|--0--2--0--|-----|--7-----7--|--4-----|--5-----5--|--0-----|-
B |----------|--2--|-----------|--2--|-----------|--------|-----------|--------|-
G |----------|-----|-----------|-----|-----------|--------|-----------|--------|-
D |----------|-----|-----------|-----|-----------|--------|-----------|--------|-
A |-0--------|--0--|--0--------|--0--|-----------|--------|--0--------|--0-----|-
E |----------|-----|-----------|-----|--0--------|--0-----|-----------|--------|-
     Silent   Night,   Holy     Night  All    Is   Calm,    All    Is   Bright  
     Silent   Night,   Holy     Night  She-perds   Quake     At   The   Sight



E |-2--2--|--5--4--2--|--0--2--0--|-----|--2--2--|--5--4--2--|--0--2--0--|-----|-
B |-------|-----------|-----------|--2--|--------|-----------|-----------|--2--|-
G |-------|-----------|-----------|-----|--------|-----------|-----------|-----|-
D |-0-----|--0--------|-----------|-----|--0-----|--0--------|-----------|-----|-
A |-------|-----------|--0--------|--0--|--------|-----------|--0--------|--0--|-
E |-------|-----------|-----------|-----|--------|-----------|-----------|-----|-
 Round yon   Vir-gin   Moth-er And Child   Ho-ly  In-fant So  Ten-der And Mild
   Glo-ry  Streams From Heaven  A-far--  Heavenly  Hosts Sing  Al-le- leu- lia 



E |-7-----7--|--10-7--4--|--5--|--9--|--5--0-----|--0--------|----
B |----------|-----------|-----|-----|--------2--|-----3--0--|----
G |----------|-----------|-----|-----|-----------|-----------|--2-
D |----------|-----------|-----|-----|-----------|-----------|----
A |----------|-----------|--0--|--0--|--0--------|-----------|--0-
E |-0--------|--0--------|-----|-----|-----------|--0--------|----
   Sleep  In   Heavenly    Peace----   Sle-ep In   Heavenly  Peace
   Christ The Saviour Is   Born-----   Christ The  Saviour Is Born



Complimentary Christian Ringtones
Dadamobile and CGR have teamed up to bring your favorite Christian artists right to your phone. Sign up today and get 10 complementary ringtones!
Tab Country
Did you know CGR has a sister site w/ country guitar tabs? Well we do! Its called Tab Country. It has a great archive with a lot of country tabs.
Rockin Tabs
Are you looking for a site that has rock guitar tabs? Then Rockintabs.com is the place for you. It is a budding site with many rock guitar tabs. Submit your tab today.
Tab Gallery
Tab Gallery has a compilation of christian, rock, and country tabs all in one place. Come visit us.