Praise Tabs
Sorted by song name ("Amazing Grace")
A|B|C|D|E|F|G|H|I|J|K|L|M|N|O|P|Q|R|S|T|U|V|W|X|Y|Z

Join Us Today!

Don't strum alone...
be a part of the largest online Christian music community. Browse thousands of guitar tabs and chat w/ musicians like yourself.


It's Free!


Silent Night



Silent Night
Tabbed By: Dave Cain
Friday, November 30, 2001

This is the melody line to the song.  It is played the way it should be sung.

e|--------------|
B|--------------|
G|------4-------|   Play 2 Times
D|---7-----7--4-|
A|--------------|
E|--------------|

e|------------------------------------------------------------|
B|------------------------------------------------------------|
G|---9-9-6--7-7-----4-4--7--6-4---4------4-4--7--6-4---4------|
D|--------------7---------------7---7-4--------------7---7-4--|
A|------------------------------------------------------------|
E|------------------------------------------------------------|

e|-------------------------------------|
B|---------8---------7-----------------|
G|---9--9-----9-6-7-----7--------------|
D|------------------------7-4-7-5------|
A|--------------------------------7-5--|
E|-------------------------------------|


Sing the song if you want to get the correct timing of the notes.



Complimentary Christian Ringtones
Dadamobile and CGR have teamed up to bring your favorite Christian artists right to your phone. Sign up today and get 10 complementary ringtones!
Tab Country
Did you know CGR has a sister site w/ country guitar tabs? Well we do! Its called Tab Country. It has a great archive with a lot of country tabs.
Rockin Tabs
Are you looking for a site that has rock guitar tabs? Then Rockintabs.com is the place for you. It is a budding site with many rock guitar tabs. Submit your tab today.
Tab Gallery
Tab Gallery has a compilation of christian, rock, and country tabs all in one place. Come visit us.