Praise Tabs
Sorted by song name ("Amazing Grace")
A|B|C|D|E|F|G|H|I|J|K|L|M|N|O|P|Q|R|S|T|U|V|W|X|Y|Z

Join Us Today!

Don't strum alone...
be a part of the largest online Christian music community. Browse thousands of guitar tabs and chat w/ musicians like yourself.


It's Free!


Jesus Love Of My Soul



Jesus Lover Of My Soul
Passion : Road to one day
Shelly Nirider


an awesome song from an awesome album ...

capo 3rd fret : all positions relative to the capo.

It’s all about You, Jesus...
And all this is for You, Jesus...
*It’s not about me...as if You should do things my way ...
E||----------------------0--||---------|* third time 
B||-----3-------3-------3-3-||----3----|play this part
G||----0-0-0---0-0-0---0---0||---0-0-0-|
D||---4---4---4---4---4-----||--4---4--|
A||----------3--------------||-3-------|
E||-0----------------3------||---------|

You are alone are God, and I surrender (pause) to Your ways...
E||----------------------|p-------------------0------|
B||----3------3------3---|a----3------3------3-3---3-|
G||---0-0-0--2-2-2--0-0-0|u---0-0-0--0-0-0--0---0-2-2|
D||--0---0--0---0--0---0-|s--0---0--0---0--0-----0---|
A||-2------0------3------|e--------3------2----------|
E||----------------------|!-3------------------------|
  
Chorus :
 
Jesus... lover of my soul
---------------------3----|
-----3-------3-------3-3--|
----0-0-0---0-0-0---2-----|
---0---0---0---0---0------|
----------3---------------|
-3------------------------|


All consuming fire is in Your gaze ...
----------------------0-----3--2--0--||
-----3-------3-------3-3---3-3--3--3-||
----0-0-0---0-0-0---0---0-2---2--2--2||
---0---0---0---0---0-----0-----------||
----------3--------------------------||
-3----------------3------------------||

  
Jesus...i want You to know
---------------------3---|
-----3-------3-------3-3-|
----0-0-0---0-0-0---2----|
---0---0---0---0---0-----|
----------3--------------|
-3-----------------------|

  
i will worship You all my days...
----------------------0-------------||
-----3-------3-------3-3------------||
----0-0-0---0-0-0---0---0---0-0-0-0-||
---0---0---0---0---0-----0---4-2-0--||
----------3----------------0--------||
-3----------------3-----------------||


For no one else in history...is like You and history itself belongs to You 
----------------------0---------------------0-----3--2--0---|
-----3-------3-------3-0----3-------3------3-3---3-3--3--3--|
----0-0-0---0-0-0---0---0--0-0-0---0-0-0--0---0-2---2--2--2-|
---0---0---0---0---0------0---0---0---0--0-----0------------|
--2-------3-------2------3-------3--------------------------|
----------------------------------------3-------------------|

  
Alpha and Omega, You have loved me... and i will spend eternity with You 
----------------------0---------------------0-----3--2--0---|
-----3-------3-------3-0----3-------3------3-3---3-3--3--3--|
----0-0-0---0-0-0---0---0--0-0-0---0-0-0--0---0-2---2--2--2-|
---0---0---0---0---0------0---0---0---0--0-----0------------|
--2-------3-------2------3--------------2-------------------|
---------------------------------3--------------------------|

   
Chords for the song : Em9,C,G and D 

tabbed by fish <>< from Tertiary Students Fellowship evening service
FGA Kuala Lumpur. 
KEEP UP THE FAITH AND PLAY YOUR GUITARS SKILLFULLY FOR THE LORD !



Complimentary Christian Ringtones
Dadamobile and CGR have teamed up to bring your favorite Christian artists right to your phone. Sign up today and get 10 complementary ringtones!
Tab Country
Did you know CGR has a sister site w/ country guitar tabs? Well we do! Its called Tab Country. It has a great archive with a lot of country tabs.
Rockin Tabs
Are you looking for a site that has rock guitar tabs? Then Rockintabs.com is the place for you. It is a budding site with many rock guitar tabs. Submit your tab today.
Tab Gallery
Tab Gallery has a compilation of christian, rock, and country tabs all in one place. Come visit us.