Go Back   Christian Guitar Forum > Musicians > Bass
Register FAQ Members List Calendar Arcade Mark Forums Read

Reply
LinkBack Thread Tools Display Modes
Unread 01-17-2014, 12:09 PM   #1
Registered User
 

Joined: Jan 2014
Posts: 1
tabs

Anyone have bass tab for Ron Konely's "righteousness peace joy" ?

cplgrooms is offline   Reply With Quote
Sponsored Links
Unread 01-28-2014, 10:24 PM   #2
Registered User
 
waveofthinking's Avatar
 

Joined: Jul 2010
Location: Southwest, Michigan
Posts: 110
This is a really good song and album..ive posted a tab below...Are you doing this for church or just leisure?

Righteousness, Peace And Joy -- Ron Kenoly

Verse

G--------------------------------------------------------------------------------------------------------------
D--------------------------------------------------------------------------------------------------------------
A-------7----8---8------10-----------------10--------7---8---8--------------------------1010-----------------
E--8--8-----------10-------10-7---8----10---8---8-----------1010----3--356--68---------8--------------
B-------------------------------------------------8-------------------------------------------------8----------------

Don't you want to be a part of the kindgom....
G--------------------------------------------------------------------------------------------------------------
D--55--5-----------------------------------757-----5----------------------------------------------------------
A-----3------7----------------------5-----5-------5------------3-----------------------------------------------
E--------------321----345---558---------------------33333------------------------------------------------
---------------------------------------------------------------------------------------------------------------

G--------------------------------------------------------------------------------------------------------------
D--------------------5------------------------------------5-----------------------------------------------------------
A--------5--------5--87---7--------------7-7------5----------------3-------------------
E---778----5--3-------76----3---5---5-5------5--3------33333-------------------------------------------
--------------------------------------------------------------------------------------------------------------

G---------------------------------------------------------------------------------------------------------------
D---------755-------------------------------------------------------------------------------------------------------
A--5--57-----8---7-7-------3---5---5--5----------5------------3--------------------------------------------
E-----------------------7-55----------------5--33-3------33333------------------------------------------------
--------------------------5------------------------------------------------------------------------------------------
__________________
"With God all things are possible"-Matthew 19:26
waveofthinking is offline   Reply With Quote
Reply

Thread Tools
Display Modes

Posting Rules
You may not post new threads
You may not post replies
You may not post attachments
You may not edit your posts

BB code is On
Smilies are On
[IMG] code is On
HTML code is On
Trackbacks are On
Pingbacks are On
Refbacks are On



All times are GMT -6. The time now is 11:02 AM.


Search Engine Friendly URLs by vBSEO 3.6.0 PL2