Go Back   Christian Guitar Forum > Musicians > Bass
Register FAQ Members List Calendar Arcade Mark Forums Read

Reply
LinkBack Thread Tools Display Modes
Unread 04-04-2012, 01:28 PM   #1
Registered User
 
waveofthinking's Avatar
 

Joined: Jul 2010
Location: Southwest, Michigan
Posts: 110
Post How to Practice the Major Scale

Key of A
G-----------------------------------------------------------------------
D-----------------4--6--7--6--4--------------------------------------
A-------4--5--7-------------------7--5--4----------------------------
E-5--7---------------------------------------7--5---------------------

G------------------------------------------------------------------------
D------------------------------------------------------------------------
A-0--2--4--5--7--9--11--12--11--9--7--5--4--2--0----------------
E------------------------------------------------------------------------


Doing this for 10-20mins a day, in every key and while humming each note will accelerate your ear development..

__________________
"With God all things are possible"-Matthew 19:26

Last edited by waveofthinking; 11-22-2013 at 11:22 AM.
waveofthinking is offline   Reply With Quote
Sponsored Links
Unread 04-04-2012, 02:22 PM   #2
Pepsi Addict
 
BaconRocks's Avatar
 

Joined: May 2011
Location: Kentucky
Posts: 302
I've been looking for somthing like this to practice on bass. Thanks!
BaconRocks is offline   Reply With Quote
Unread 04-11-2012, 10:32 AM   #3
Registered User
 
waveofthinking's Avatar
 

Joined: Jul 2010
Location: Southwest, Michigan
Posts: 110
Quote:
Originally Posted by BaconRocks View Post
I've been looking for somthing like this to practice on bass. Thanks!
No problem!
__________________
"With God all things are possible"-Matthew 19:26
waveofthinking is offline   Reply With Quote
Unread 06-11-2012, 10:09 AM   #4
Registered User
 

Joined: Mar 2012
Posts: 37
Nice This should help a lot of people.
iTzKPanda is offline   Reply With Quote
Unread 07-22-2012, 12:23 PM   #5
Registered User
 
waveofthinking's Avatar
 

Joined: Jul 2010
Location: Southwest, Michigan
Posts: 110
Right on, brother!
__________________
"With God all things are possible"-Matthew 19:26
waveofthinking is offline   Reply With Quote
Unread 12-05-2012, 08:07 PM   #6
Registered User
 
waveofthinking's Avatar
 

Joined: Jul 2010
Location: Southwest, Michigan
Posts: 110
Here's a third variation of the major scale in the key of A

Key of A

G---------------------6--7--
D-----------5--7--9--------
A--5--7--9-----------------
E----------------------------
__________________
"With God all things are possible"-Matthew 19:26
waveofthinking is offline   Reply With Quote
Unread 11-22-2013, 11:29 AM   #7
Registered User
 
waveofthinking's Avatar
 

Joined: Jul 2010
Location: Southwest, Michigan
Posts: 110
4th Variation of Major scale also in Key of A

G---------------------1--2------------------------------------------------
D---------------2--4------------------------------------------------------
A-----2--4--5---------------------------------------------------------
E---5---------------------------------------------------------------------
__________________
"With God all things are possible"-Matthew 19:26
waveofthinking is offline   Reply With Quote
Reply

Thread Tools
Display Modes

Posting Rules
You may not post new threads
You may not post replies
You may not post attachments
You may not edit your posts

BB code is On
Smilies are On
[IMG] code is On
HTML code is On
Trackbacks are On
Pingbacks are On
Refbacks are On



All times are GMT -6. The time now is 07:48 AM.


Search Engine Friendly URLs by vBSEO 3.6.0 PL2