Christian Guitar Forum

Christian Guitar Forum (http://www.christianguitar.org/forums/)
-   Bass (http://www.christianguitar.org/forums/f223/)
-   -   Help with some bass lines (http://www.christianguitar.org/forums/t192374/)

hernando 02-09-2011 10:02 PM

Help with some bass lines
 
hi
can anyone tell me some bass lines for the song "In the garden"????

waveofthinking 02-10-2011 08:20 AM

Quote:

Originally Posted by hernando (Post 3627651)
hi
can anyone tell me some bass lines for the song "In the garden"????

Can you give us an artist or youtube link?

hernando 02-10-2011 09:48 PM

alan jackson
youtube.com/watch?v=yzzqhaLl_8w&feature=related

waveofthinking 02-12-2011 06:02 PM

Here's somin you could try:

Verse: (Main notes-Eb,Ab,Eb, Bb, C,Eb, F)

Key is Eb, but if playing a 4 string just move first note to 11th fret of E string to get a feel and transpose as needed.

G----------------------------------------------------------------------------------------------------------------
D-------------------------------------------------------------------65---------------------------------------
A--------6---------------------------------6-5-3--------3--56-----8----8------8----------------------------
E------6----6-----------3-4--44-6----6-------6--6-------------------8----------6-------------------------
B--4-----------4--44-6-------------4------------------------------------------------------------------------

Chorus: (Main notes-Eb,Bb,Ab,Eb,Eb,C, Bb, Eb )
G---------------------------------------------------------------------------------------------------------------
D--------------------875--------8---------------------------------------------------------------------------
A-----653---------------8-----8---5-6-----6-5-------------------------------------------------------------
E----------6----6-------------6------------6------46-----3--4-4--5--5-----------------------------------
B--4----------6----------------------------------------4--4------------------4------------------------------


All times are GMT -6. The time now is 04:47 AM.



vBulletin Optimisation provided by vB Optimise (Lite) - vBulletin Mods & Addons Copyright © 2021 DragonByte Technologies Ltd.


Search Engine Friendly URLs by vBSEO 3.6.0 PL2