Printed from Christian Guitar Resources
www.christianguitar.org
If you make copies of this song, be sure to report your usage to CCLI.

Skillet: Yours To Hold
From: Comatose
Copyright  2006 Atlantic Records
Dropped Standard Tuning D-G-C-F-A-D
*(Or another theory since their songs are mostly in Drop B
 is that the use Capo 3)

(All Chords are relative to Tuning [or Capo*])
Chords
E*=x-7-9-9-0-0
A=x-0-2-2-2-0
C#m=x-4-6-6-5-0
B=-x-2-4-4-4-0
E=0-2-2-1-0-0
F#m=2-4-4-2-2-2
E/G#=4-x-2-4-0-0
E/D#=x-6-9-8-0-0

b=bend
r=return bend
h=hammer on
p=pull off
~=let it ring
palm mute=...etc

Verse 1
E*  A
C#m B A
E*  A
C#m B A

Pre-Chorus
C#m B E/G# A

Chorus 1
E  F#m
C#m B A
E  F#m
C#m B A

Post-Chorus
Acoustic Gtr.
E  E  E  E

Electric Gtr.
D[--------------------------------------------------------------------------]
A[---12-----------------12---------------------12---------------------------]
F[-9----9-11-13-13br--9----9-8--11-11h13p11--9----9-11-13-13br--13br-9~~----]
C[--------------------------------------------------------------------------]
G[--------------------------------------------------------------------------]
D[--------------------------------------------------------------------------]

Verse 2
Acoustic Gtr.
E*  A
C#m B A
E*  A
C#m B A

Electric Gtr.
D[-------0------------------------]
A[----0-------10--9--5---4---5----]
F[--------------------------------]
C[-2------------------------------]
G[--------------------------------]
D[--------------------------------]

Pre-Chorus
Acoustic Gtr.
C#m B E/G# A

Electric Gtr.
D[---------------------------------]
A[-5--------4--------5--------5----]
F[---------------------------------]
C[---------------------------------]
G[---------------------------------]
D[---------------------------------]
  .................................

Chorus 2
Acoustic Gtr.
E   F#m
C#m B A
E   F#m
C#m B A

Electric Gtr.
D[--------------------------------]
A[--------------------------------]
F[-------------------6---4---2----]
C[-2--4--6--4--6--7--6---4---2----]
G[-2--4--7--4--7--7--4---2---0----]
D[-0--2--4--2--4--5---------------]

D[---------------------------------]
A[---------------------------------]
F[-------------------6--8--4--2----]
C[-2--4--6--4--6--7--6--9--4--2----]
G[-2--4--7--4--7--7--4--6--2--0----]
D[-0--2--4--2--4--5----------------]

Bridge
Acoustic Gtr.
F#m  C#m  B x2

E/G# A B A
E/G# A  E/G# A

Electric Gtr.
D[---------------]
A[---------------]
F[------6---4----]
C[-4----6---4----]
G[-4----4---2----]x2
D[-2-------------]

D[------------------------------------------]
A[------------------------------------------]
F[------------------------------------------]
C[-6--7--9--7--6/6/6/6-7--6/6/6/6-7----7----]
G[-7--7--9--7--7/7/7/7-7--7/7/7/7-7----7----]
D[-4--5--7--5--4/4/4/4-5--4/4/4/4-5----5----]
                                       .....

Chorus 3
(Play Chorus 3 twice)
Acoustic Gtr.
E   F#m
C#m B A
E   F#m
C#m B A

Electric Gtr.
D[--------------------------------]
A[--------------------------------]
F[-------------------6---4---2----]
C[-2--4--6--4--6--7--6---4---2----]
G[-2--4--7--4--7--7--4---2---0----]
D[-0--2--4--2--4--5---------------]

D[---------------------------------]
A[---------------------------------]
F[-------------------6--8--4--2----]
C[-2--4--6--4--6--7--6--9--4--2----]
G[-2--4--7--4--7--7--4--6--2--0----]
D[-0--2--4--2--4--5----------------]

Ending
Acoustic Gtr.
D[-------0------------0--------2----------0------------0--------2-------]
A[----------------------------------------------------------------------]
F[---2-------2------------------------2-------2--------------------4----]
C[-----4-------4----6---6----4---4------4-------4----2---2----4---------]
G[----------------4--------2--------------------------------2-----------]
D[-2-------2------------------------2-------2------0--------------------]

D[-------0--0----]
A[-----2----2----]
F[----------2----]
C[---2------2----]
G[-0--------0----]
D[---------------]


Tabbed by Adam K