Guitar Tabs
song title    band name

Join Us Today!

Don't strum alone...
be a part of the largest online Christian music community. Browse thousands of guitar tabs and chat w/ musicians like yourself.


It's Free!

Kutless - Tonight

This tab has been rated a 4.78 out of 5 for accuracy. (9 votes)Sorry, but you must be logged in to rate this tab.
Click here to log-in, or you can click here to register.
(Registration is free)

All songs owned by corresponding publishing company. If you make copies of any song on this website, be sure to report your usage to CCLI.
  Song- Tonight
  Artist- Kutless
  Tabbed by- Tyler Smith
  Tuning- dropped d
  Key- ^=harmonic, *= palm mute


  Intro-(guitar with slight auto-wah) 
  e-x
  b-x
  g-x
  d-x
  a--5--5/6-5\4/5--5--5/6-5\4/5--5--5/6-8---5-let ring
  d-0--0---0--0---0--0---0--0---0-0--0-0---0--
========================================================
  Intro 2-(chorus)-distortion
  e-x
  b-x
  g-x
  d-0-0-0-0-3/8--0-0-0-0-3---10--0-0-0-0-3/8-0-3-2-0-2-0
  a-0-0-0-0-3/8--0-0-0-0-3---10--0-0-0-0-3/8-0-3-2-0-2-0
  d-0-0-0-0-3/8--0-0-0-0-3-3-10--0-0-0-0-3/8-0-3-2-0-2-0
                           ^                   * * * *
========================================================
  Verse-(guitar 1, the second guitar will run underneath
  the first guitar part so you know when to play it)
  e-x
  b-x  
  g-x           1st guitar!!!(clean)
  d-x
  a--5--5/6-5\4/5--5--5/6-5\4/5--5--5/6-8---5-
  d-0--0---0--0---0--0---0--0---0-0--0-0---0--
=========================================================
  e-x
  b-x
  g-x           1st guitar!!!(clean)
  d-x
  a--5--5/6-5\4/5--5--5/6-5\4/5--5--5/6-8---5-
  d-0--0---0--0---0--0---0--0---0-0--0-0---0--
========================================================= 
  d-0-0----0-0----0-0----0-0----0-0--0-0-
  a-0-0----0-0----0-0----0-0----0-0--0-0-second guitar
  d-0-0----0-0----0-0----0-0----0-0--0-0-(distortion)
    * *    * *    * *    * *    * *  * *
=========================================================
Chorus(same as intro 2)
=========================================================
  Verse 2
  e-x
  b-x  
  g-x           1st guitar!!!(clean)
  d-x
  a--5--5/6-5\4/5--5--5/6-5\4/5--5--5/6-8---5-
  d-0--0---0--0---0--0---0--0---0-0--0-0---0--
=========================================================  
  d--------------------------------------------0-3-2-3-
  a--------------------------------------------0-3-2-3-
  d--------------------------------------------0-3-2-3-
                                               *   
=========================================================
  e-x
  b-x  
  g-x         1st guitar(distortion)
  d--------------------------------------------0-3-2-0-2-
  a--5--5/6-5\4/5--5--5/6-5\4/5--5--5/6-8---5--0-3-2-0-2-
  d-0-0-0-0-0-0-0-0-0-0-0-0-0-0-0-0-0-0-0-0-0--0-3-2-0-2-
    * * * * * * * * * * * * * * * * * * * * *  *
=========================================================
  d-0-0----0-0----0-0----0-0----0-0--0-0---------3-2-0-2-
  a-0-0----0-0----0-0----0-0----0-0--0-0---------3-2-0-2-
  d-0-0----0-0----0-0----0-0----0-0--0-0---------3-2-0-2- 
=========================================================
  Chorus  
=========================================================
  Bridge will include later g2g 
=========================================================
  Chorus
=========================================================
Tyler

Comments about this tab

kj52rox - 2004-06-01

--0--0--xx--1/3-3-3-3-3-8-8-8--0--3-2-0-2-0


kj52rox - 2004-06-01

sorry about the above shud b
0--0--xx--1/3-3-3-3-3-8-8-8 repeat Then -0-3-2-0-2-0


kj52rox - 2004-06-01

bridge is
E x
B x
G x
D------4--4--4-4-4-4--x-x---6--6--6-6-6-6--x-x---8--8--8-8-8-8 repeat
A------0--0--0-0-0-0--x-x---4--4--4-4-4-4--x-x---6--6--6-6-6-6 Repeat
E------0--0--0-0-0-0--x-x---4--4--4-4-4-4--x-x---6--6--6-6-6-6 Repeat

then the -0-3-2-0-2-0


unknown - 2004-06-23

awesome job!


guitarbmee - 2004-07-28

yeah, yeah, yeah; right, right, right. great job! the right chords and easy to understand.


Phonix - 2004-11-05

urm i find it very hard to understand.... but thx anyways :)


church-clown40 - 2005-02-10

Can't into 2 go like this?

e----------------------------------------------------------------------
b----------------------------------------------------------------------
g---------------------------------------------------------------------- repeat
d-----------6-6-6-----------8-8-8-----------6-6-6---------------------- as
a-3-3-3/6-6-4-4-4-3-3-3/6-6-6-6-6-3-3-3/6-6-4-4-4-3-6-5-3-5-3--5-5----- needed
E-1-1-1/4-4-------1-1-1/4-4-------1-1-1/4-4-------1-4-3-1-3-1--3-3-----


Belovedrawks - 2005-02-27

."(0~0)".

THAT'S CONFUSING!

Oh well . . .

It looks accurate, but I haven't figured out enough to play it yet . . .


slick2715 - 2007-03-25

I thought the chorus was like this.

e x
b x
g x
d-0-0-0-0-3/6--0-0-0-0-3---8--0-0-0-0-3/6-0-3-2-0-2-0
a-0-0-0-0-3/6--0-0-0-0-3---8--0-0-0-0-3/6-0-3-2-0-2-0
d-0-0-0-0-3/6--0-0-0-0-3-3-8--0-0-0-0-3/6-0-3-2-0-2-0
^ * * * *

It just sounds better to me this way.


Add a comment/correction

Complimentary Christian Ringtones
Dadamobile and CGR have teamed up to bring your favorite Christian artists right to your phone. Sign up today and get 10 complementary ringtones!
Tab Country
Did you know CGR has a sister site w/ country guitar tabs? Well we do! Its called Tab Country. It has a great archive with a lot of country tabs.
Rockin Tabs
Are you looking for a site that has rock guitar tabs? Then Rockintabs.com is the place for you. It is a budding site with many rock guitar tabs. Submit your tab today.
Tab Gallery
Tab Gallery has a compilation of christian, rock, and country tabs all in one place. Come visit us.