Guitar Tabs
song title    band name

Join Us Today!

Don't strum alone...
be a part of the largest online Christian music community. Browse thousands of guitar tabs and chat w/ musicians like yourself.


It's Free!

Blindside - Pitiful

This tab has been rated a 3.00 out of 5 for accuracy. (1 vote)Sorry, but you must be logged in to rate this tab.
Click here to log-in, or you can click here to register.
(Registration is free)

All songs owned by corresponding publishing company. If you make copies of any song on this website, be sure to report your usage to CCLI.
Song Title: "Pitiful"
Band: Blindside
Album: Silence
Tabbed By: Butterball (fuzzball@smileyface.com)

One of the greatest songs ever recorded--I almost wet my pants after
listening to the tune and words. This seemed the easiest way to play it,
so here it is. \
Cheers, and enjoy! :)



(Dropped D Tuning: D-A-D-G-B-E) 

~ INTRODUCTION ~

[--------------------------------------------]
[--------------------------------------------]
[--8--/6--/11--/6--/8--/6--/11---------------]
[--8--/6--/11--/6--/8--/6--/11--1--/4--/1----]
[--6--/4--/9---/4--/6--/4--/9---1--/4--/1----]
[-------------------------------1--/4--/1----]

(2X)

[-------]
[-------]
[--8----]
[--8----]
[--6----]
[-------]

(Ring out)

~ VERSE ~

[------------------------------------------------]
[------------------------------------------------]
[--6h8--8--8--8--8--8--11--11--11--10--10--10----]
[------------------------------------------------]
[------------------------------------------------]
[------------------------------------------------]

(8X)

[---------------]
[---------------]
[---------------]
[--1--/4--/1----]
[--1--/4--/1----]
[--1--/4--/1----]
 

~ CHORUS ~

[--------------------------------------------]
[--------------------------------------------]
[--8--/6--/11--/6--/8--/6--/11---------------]
[--8--/6--/11--/6--/8--/6--/11--1--/4--/1----]
[--6--/4--/9---/4--/6--/4--/9---1--/4--/1----]
[-------------------------------1--/4--/1----]

(4X)

[-------]
[-------]
[--8----]
[--8----]
[--6----]
[-------]

(Ring out)

~ PRE-BRIDGE ~

[----------------------]
[----------------------]
[--8--/10--/11--/10----]
[--8--/8---/9---/8-----]
[--6--/8---/9---/8-----]
[----------------------]

(2X)

[-------------6--6-------]
[--7--7--7h6--------6----]
[------------------------]
[------------------------]
[------------------------]
[------------------------]

(4X) 

~ BRIDGE ~

[-------------6h116-------]
[--7h6--7h6----------6----]
[-------------------------]
[-------------------------]
[-------------------------]
[-------------------------]

(8X)

~ ENDING CHORUS ~

[---------------]
[---------------]
[---------------]
[--1--/4--/1----]
[--1--/4--/1----]
[--1--/4--/1----]

[--------------------------------------------]
[--------------------------------------------]
[--8--/6--/11--/6--/8--/6--/11---------------]
[--8--/6--/11--/6--/8--/6--/11--1--/4--/1----]
[--6--/4--/9---/4--/6--/4--/9---1--/4--/1----]
[-------------------------------1--/4--/1----]

(8X)

~ FADE-OUT ~

[-------]
[-------]
[--8----]
[--8----]
[--6----]
[-------]

(Ring out)

[--6--7h4--------------------]
[----------------------------]
[----------------------------]
[----------8h4--3--8h4--3----]
[----------------------------]
[----------------------------]

(Optional)



*SONG ORDER

Introduction
Verse
Chorus
Verse
Chorus
Pre-Bridge
Bridge
Ending Chorus
(Fade-Out)



That's about it, I guess.
Any questions, comments or suggestions are good to boot to
fuzzball@smileyface.com or chaolan_goldfish@yahoo.com.
God loves you, have a fuzzy day! ^_^

Comments about this tab

Dani_Boy - 2006-05-05

This song uses lots of octaves in the chorus. You missed out a few things, that's all.


Add a comment/correction

Complimentary Christian Ringtones
Dadamobile and CGR have teamed up to bring your favorite Christian artists right to your phone. Sign up today and get 10 complementary ringtones!
Tab Country
Did you know CGR has a sister site w/ country guitar tabs? Well we do! Its called Tab Country. It has a great archive with a lot of country tabs.
Rockin Tabs
Are you looking for a site that has rock guitar tabs? Then Rockintabs.com is the place for you. It is a budding site with many rock guitar tabs. Submit your tab today.
Tab Gallery
Tab Gallery has a compilation of christian, rock, and country tabs all in one place. Come visit us.