Guitar Tabs
song title    band name

Join Us Today!

Don't strum alone...
be a part of the largest online Christian music community. Browse thousands of guitar tabs and chat w/ musicians like yourself.


It's Free!

This tab has not yet been rated for accuracy.Sorry, but you must be logged in to rate this tab.
Click here to log-in, or you can click here to register.
(Registration is free)

All songs owned by corresponding publishing company. If you make copies of any song on this website, be sure to report your usage to CCLI.
-------------------
Name: Inception
Artist: Focal Point
Album: Suffering of the Masses
Tabbed By: Jacob E. - smileyscreamer@hotmail.com
Standard Tuning: EADGBE
-------------------

This song is pretty easy. Just listen to it for the timing. I think its
around 60 bpm. Just play all of the way through and repeat when indicated.



e|| ------------------------------------------------------------------|
B||o--------------0-----------------------0---------------------------|
G|| ---------2-------2---------------2-------2------------------------|
D|| ------2-------------2---------2-------------2---------------------|
A||o---0-----------------------0--------------------------------------|
E|| ------------------------------------------------------------------|



e|------------------------------------------------------------------ ||
B|--------------0-----------------------0---------------------------o||
G|---------2-------2---------------2-------2------------------------ ||
D|------2-------------2---------2-------------2--------------------- ||
A|------------------------------------------------------------------o||
E|---1-----------------------3-------------------------------------- ||



e|| ---------------0---------------------------0-------------||-------|
B||o------------0-----0---------------------0-----0---------o||-------|
G|| ---------2-----------2---------------2-----------2-------||--x 4--| 
D|| ------2-----------------2---------2-----------------2----||-------|
A||o---0---------------------------3------------------------o||-------|
E|| ---------------------------------------------------------||-------|



e|| ------------------------------------------------------------------|
B||o---------------0---------------------------0----------------------|
G|| ---------0-----------0---------------0-----------0----------------|
D|| ------2-----2-----2-----2---------2-----2-----2-----2-------------|
A||o---2---------------------------3----------------------------------|
E|| ------------------------------------------------------------------|



e|------------------------------------------------------------------ ||
B|---------------0--------------------------------------------------o||
G|---------0-----------0---------------------0---------------------- ||
D|------2-----2-----2-----2------------2-----------2---------------- ||
A|---0------------------------------0-----0-----0-----0-------------o||
E|-------------------------------2---------------------------------- ||



e|| -------------------------------------------------------- ||-------|
B||o--------------------------------------------------------o||-------|
G|| ---------------0---------------------------0------------ ||--x 4--|
D|| ---------2-----------2---------------2-----------2------ ||-------|
A||o------0-----0-----0-----0---------0-----0-----0-----0---o||-------|
E|| ---3---------------------------2------------------------ ||-------|



e|| -------------------------------------------------------- ||-------|
B||o-------------------------------------------0------------o||-------|
G|| ---------------0---------------------0-----------0------ ||--x 4--|
D|| ---------3-----------3------------2-----2-----2-----2--- ||-------|
A||o------0-----0-----0-----0------2------------------------o||-------|
E|| ---3---------------------------------------------------- ||-------|




e|| -------------------------------------------0------------ ||-------|
B||o---------------0------------------------0-----0---------o||-------|
G|| ---------2-----------2---------------2-----------2------ ||--x 4--|
D|| ------2-----2-----2-----2---------2-----------------2--- ||-------|
A||o---0---------------------------3------------------------o||-------|
E|| -------------------------------------------------------- ||-------|




e|| -------------------------------------------------------- ||-------|
B||o---------------0----------------------------------------o||-------|
G|| ---------2-----------2---------------------2------------ ||--x 3--|
D|| ------2-----2-----2-----2------------2-----------2------ ||-------|
A||o---0------------------------------0-----0-----0-----0---o||-------|
E|| -------------------------------1------------------------ ||-------|




e|----------------------------|-0-|-----------------------------------|
B|---------------0------------|-0-|-----------------------------------|
G|---------2-----------2------|-2-|-----------------------------------|
D|------2-----2-----2-----2---|-2-|-----------------------------------|
A|---0------------------------|-0-|-----------------------------------|
E|----------------------------|-1-|-----------------------------------|

Comments about this tab

No comments/corrections found. Add your own

Complimentary Christian Ringtones
Dadamobile and CGR have teamed up to bring your favorite Christian artists right to your phone. Sign up today and get 10 complementary ringtones!
Tab Country
Did you know CGR has a sister site w/ country guitar tabs? Well we do! Its called Tab Country. It has a great archive with a lot of country tabs.
Rockin Tabs
Are you looking for a site that has rock guitar tabs? Then Rockintabs.com is the place for you. It is a budding site with many rock guitar tabs. Submit your tab today.
Tab Gallery
Tab Gallery has a compilation of christian, rock, and country tabs all in one place. Come visit us.