Guitar Tabs
song title    band name

Join Us Today!

Don't strum alone...
be a part of the largest online Christian music community. Browse thousands of guitar tabs and chat w/ musicians like yourself.


It's Free!

Delirious - Promise

This tab has been rated a 5.00 out of 5 for accuracy. (2 votes)Sorry, but you must be logged in to rate this tab.
Click here to log-in, or you can click here to register.
(Registration is free)

All songs owned by corresponding publishing company. If you make copies of any song on this website, be sure to report your usage to CCLI.
Promise
delirious?
King Of Fools


Intro:        G5    Em7    A
E--------------3-----x-----x-----
B--------------3--x--3--x--2-----
G--------------0--x--0--x--2-----
D--------------0--x--2--x--2-----
A--x-----------x--x--2--x--0-----
E--x-3-3--0-0--3-----x-----x----- 4x


Verse 1:
G  Em7  A
Em7  A
C  F  Em

Em7  A
Em7  A
C  F  Em

Chorus:
Intro riff 3x
3rd time end on C


Verse 2:
    Em7     A      Em7    A      C     F      Em 
E-----------------------------------------------------
B------3------2------3------2------1-----1------0-----
G----0------2------0------2------0-----2------0-------
D--2------2------2------2------2-----3------2---------
A-----------------------------------------------------
E--------------------------------------------------0-- 2x


Chorus 2: 2x
Intro riff 3x
3nd time end on C


Guitar solo:
E----------------------------------------------------------------------------
B----------------------------------------------------------------------------
G--12/14\12----12---9-----------------12/14\12----12/14\12---9---------------
D--12/14\12----12--11--11v--------12--12/14\12----12/14\12--11--11v-------9--
A---------------------------10h12----------------------------------10h12-----
E------------0-----------------------------------0---------------------------


E----------------------------------------------------------------------------
B----------------------------------------------------------------------------
G----12/14\12----12/14\12----9---------10---12---14---10--------12/14\12-----
D----12/14\12----12/14\12---11----10----------------------------12/14\12-----
A---------------------------------------8---10---12----8---------------------
E--0-------------------------------8------------------------0----------------


E----------------------------------------------------------
B-------------------12-------------12---15-15-14-12-14-----
G----12/14\12---12--12--12--14b16--12---12-12-12-12-12-----
D----12/14\12---12------12---------------------------------
A----------------------------------------------------------
E--0-------------------------------------------------------


E-----------------------------------------12--15b17r15--15v-----
B---------------12-------------12--15b17------------------------
G-----12/14\12--12--12--14b16--12-------------------------------
D-----12/14\12------12------------------------------------------
A---------------------------------------------------------------
E--0------------------------------------------------------------


E--15p12---------------------------------------------------------------------
B--------15p12----------------------12----------12---14-15-14-12-14----------
G---------------14p12-----12/14\12--12---14b16--12---12-12-12-12-12----------
D-------------------------12/14\12-------------------------------------10----
A----------------------------------------------------------------------------
E----------------------0------------------------------------------------8----


Outro (w/wah pedal):
  Em              D               C#4             Cdim
E-----------------------------------------------------------------
B-----------------------------------------------------------------
G------0----0----------0----0----------0----0----------0-----0----
D----4----4----4-----4----4----4-----4----4----4-----4----4----4-- 
A--7----7----7-----5----5----5-----4----4----4-----3----3----3----
E----------------------------------------------------------------- 3x


Last time:                            
  Em                D                 C#4    		 Cdim
E----------------------------------------------------------------
B----------------------------------------------------------------
G------0-----0-----------0-----0-----------0-----0---------------
D----4-----4-----4-----4-----4-----4-----4-----4-----4-----4v----
A--7-----7-----7-----5-----5-----5-----4-----4-----4-------3v----
E----------------------------------------------------------------


Key:
/: slide up
\: slide down
h: hammer-on
p: pull-off
v: vibrato
b: string bend
r: release bend


Transcribed by Josh. Comments? Let me know: spy2000@aol.com

Comments about this tab

Delirious Ste - 2006-01-30

Great tab thanks


Add a comment/correction

Complimentary Christian Ringtones
Dadamobile and CGR have teamed up to bring your favorite Christian artists right to your phone. Sign up today and get 10 complementary ringtones!
Tab Country
Did you know CGR has a sister site w/ country guitar tabs? Well we do! Its called Tab Country. It has a great archive with a lot of country tabs.
Rockin Tabs
Are you looking for a site that has rock guitar tabs? Then Rockintabs.com is the place for you. It is a budding site with many rock guitar tabs. Submit your tab today.
Tab Gallery
Tab Gallery has a compilation of christian, rock, and country tabs all in one place. Come visit us.