Guitar Tabs
song title    band name

Join Us Today!

Don't strum alone...
be a part of the largest online Christian music community. Browse thousands of guitar tabs and chat w/ musicians like yourself.


It's Free!

Mullen, Nicole C. - Redeemer

This tab has been rated a 3.33 out of 5 for accuracy. (3 votes)Sorry, but you must be logged in to rate this tab.
Click here to log-in, or you can click here to register.
(Registration is free)

All songs owned by corresponding publishing company. If you make copies of any song on this website, be sure to report your usage to CCLI.
Artist:   Nicole C. Mullen
Title:    "Redeemer"
Album:    Nicole C. Mullen  (Word Records)

Transcribed by:  Brad Keller (BandMKell@aol.com)

You'll be sounding like you came straight from the recording studio
with Nicole if you can nail down the notes here...nothing too difficult
(except for the occasionally tricky offbeats peppered in the guitar playing
by John Willis).  
There is a chord transcription of this song posted to this site (by Jan)
and as long as those lyrics are posted you can combine these two and
you're good to go.  I would make a few necessary changes to the other
chord transcription posted by Jan though (keeping in mind that the
proprieters of this site are working to remove all lyrics so this may
be moot):

When you're playing and strumming chords only, "C" is usually more preferrable.
With the chorus written with 5 lines the chords go like this:
G C D
C B7 C
     D
B7 Em D C2
     D  G

Believe it or not, this is pretty much the entire song.  The verses and
chorus are variations of this main pattern.  Get this down while feeling
comfortable with what chord you're playing, and you'll be ready to master
the whole song.
*****************************************************************
Intro
  G           Cadd9          (D)
E--------------------------------------------------
B-------3----------3--------3-3--3-3---------------
G------0----0-----0---0---2-2-0--0-2---------------
D-----0----0-----2---2-0---------------------------
A-------------3-------------------------------------
E--3------------------------------------------------

First verse
   G          Cadd9     D           
E----------------------------0-----------------------
B-------3----------3--------3---3--------3--3--------
G------0---0------0---0----2------2------2--2--------
D-----0---0------2---2--0------------0---------------
A-------------3--------------------------------------
E--3-------------------------------------------------
                             *(offbeat above asterisk)
   G        Cadd9    D                         Cadd9
E-------------------------2--0---------------------------
B------3--------3---------3--3---3---3-------------3-----
G-----0---0----0---0---2---------2---0------------0---0--
D----0---0----2---2--0-------------------4--2-0--2---2---
A-----------3----------------------------------3---------
E--3-----------------------------------------------------


   B7                        Cadd9
E---------------------------------------------------
B----4--4--4---------------------3------------------
G----2--2--2------2-------2-----0--0----------------
D----------------4-------4-----2--2-----------------
A--2----------2-------2------3----------------------
E---------------------------------------------------


   G         Cadd9         D
E-----------------------------2---0-------------------
B------3-----------3--------3-3---3---3---3--------3--
G-----0----0-----0-----0---2----------2---0--------0--
D----0----0----2------2--0---------------------4------
A------------3----------------------------------------
E--3--------------------------------------------------

Remember:  Cadd9 - the finger positioning for this chord is just as it
is picked out on the tab.  Place your fingers where noted and you've got
it.
The asterisk above the offbeat I noted is one that is particularly tricky.
The offbeat should be the 0/3 fingering on the last two strings. Obviously,
only the one offbeat is noted.   God Bless.

Comments about this tab

WashburnGuitar9 - 2007-04-01

what is this? whats the chorus? im sorry but no..........


Add a comment/correction

Complimentary Christian Ringtones
Dadamobile and CGR have teamed up to bring your favorite Christian artists right to your phone. Sign up today and get 10 complementary ringtones!
Tab Country
Did you know CGR has a sister site w/ country guitar tabs? Well we do! Its called Tab Country. It has a great archive with a lot of country tabs.
Rockin Tabs
Are you looking for a site that has rock guitar tabs? Then Rockintabs.com is the place for you. It is a budding site with many rock guitar tabs. Submit your tab today.
Tab Gallery
Tab Gallery has a compilation of christian, rock, and country tabs all in one place. Come visit us.