Guitar Tabs
song title    band name

Join Us Today!

Don't strum alone...
be a part of the largest online Christian music community. Browse thousands of guitar tabs and chat w/ musicians like yourself.


It's Free!

Disciple - Worship Conspiracy

This tab has not yet been rated for accuracy.Sorry, but you must be logged in to rate this tab.
Click here to log-in, or you can click here to register.
(Registration is free)

All songs owned by corresponding publishing company. If you make copies of any song on this website, be sure to report your usage to CCLI.
Disciple - This Might Sting A Little - Worship Conspiracy
Copyright:Rugged Records 1999
Tabbed by BiptoN@charter.net

Okay as U know already perhaps from the other tabs I've done, I'm lazy and 
don't 
put all the bends and tweaks and every little note in the tabs I do. I look at 

tabs as a way to help get you in the ballpark so you can develope your ear ;)

	Here we go than, you can substitute the open Db Ab for a "5p0" on the 
Ab    string, I don't think that sounds as good though, yer call :)

Eb |---------------------------------------------------------------------
Bb |---------------------------------------------------------------------
Gb |---------------------------------------------------------------------
Db |------0--------0--------0--------0---------0--------0--------0-------
Ab |--------0--------0--------0--------3^--------0--------0--------0-----
Db |0--0------0-0-0----0-0-0----0-0-0------0--0----0-0-0----0-0-0--------

	play this 2x

Eb |---------------------------------------------------------------------
Bb |---------------------------------------------------------------------
Gb |------7---------7---------7---------5~~------------------------------
Db |------7---------7---------7---------5~~------------------------------
Ab |-0--0-5p0-0-0-0-5p0-0-0-0-5p0-0-0-0-3^~------------------------------
Db |-0--0-----0-0-0-----0-0-0-----0-0-0----------------------------------

	Then comes the words, you can throw a slight bend on this chord
	listen when yer playin' this through again later in the song right
	around the easter part he throws in a couple open Db's

Eb |----------------------------------------------------------|----------
Bb |----------------------------------------------------------|----------
Gb |----------------------------------------------------------|----------
Db |-3-3--3-3--3-3--3-3--3-3--3-3--3-3--3-3--/12--------------|-0-0-0-0--
Ab |-3-3--3-3--3-3--3-3--3-3--3-3--3-3--3-3--/12--------------|-0-0-0-0--
Db |-3-3--3-3--3-3--3-3--3-3--3-3--3-3--3-3--/12--------------|-0-0-0-0--

	Chorus repeat this riff 4x then into this here, plam mute on the open 
chord there.
	
Eb |-----------------------------|---------------------------------------
Bb |-----------------------------|---------------------------------------
Gb |-----------------------------|---------------------------------------
Db |-3-3-3-3--5--3-3-3-3-3-3-3---|--5-------3-------8----0h1p0h1p0-------
Ab |-3-3-3-3--5--3-3-3-3-3-3-3---|--5-00-0--3-00-0--8--0-----------------
Db |-3-3-3-3--5--3-3-3-3-3-3-3---|--5-00-0--3-00-0--8--0-----------------

	This is the part where kevin's singin "worthy every tongue" 
	(my count may be off by one or 	two)

Eb |---------------------------------------------------------------------
Bb |---------------------------------------------------------------------
Gb |---------------------------------------------------------------------
Db |-0-0-0-0-4-4-0-0-0-0-0-0-0-0-0-0-0-0-4-0-0-0-0-0-0-------------------
Ab |-0-0-0-0-4-4-0-0-0-0-0-0-0-0-0-0-0-0-4-0-0-0-0-0-0-------------------
Db |-0-0-0-0-4-4-0-0-0-0-0-0-0-0-0-0-0-0-4-0-0-0-0-0-0-------------------

	The little fill type riff Brad does is somethin' like this 2x

Eb |-3-3-3-3-3/5-5--3-3-3-3-3/5-5-5/6------------------------------------
Bb |---------------------------------------------------------------------
Gb |-5-5-5-5-5/7-7--5-5-5-5-5/7-7-7/8------------------------------------
Db |---------------------------------------------------------------------
Ab |---------------------------------------------------------------------
Db |---------------------------------------------------------------------

This here should suffice, there's enough here to play the song and also help 
your ear develop
and like always the palm-mutin', strum patterns are very important and keep an 
ear out for the false
harmonics here and there. Have fun!! ;)

Comments about this tab

No comments/corrections found. Add your own

Complimentary Christian Ringtones
Dadamobile and CGR have teamed up to bring your favorite Christian artists right to your phone. Sign up today and get 10 complementary ringtones!
Tab Country
Did you know CGR has a sister site w/ country guitar tabs? Well we do! Its called Tab Country. It has a great archive with a lot of country tabs.
Rockin Tabs
Are you looking for a site that has rock guitar tabs? Then Rockintabs.com is the place for you. It is a budding site with many rock guitar tabs. Submit your tab today.
Tab Gallery
Tab Gallery has a compilation of christian, rock, and country tabs all in one place. Come visit us.