Guitar Tabs
song title    band name

Join Us Today!

Don't strum alone...
be a part of the largest online Christian music community. Browse thousands of guitar tabs and chat w/ musicians like yourself.


It's Free!

DC Talk - Supernatural

This tab has been rated a 4.00 out of 5 for accuracy. (5 votes)Sorry, but you must be logged in to rate this tab.
Click here to log-in, or you can click here to register.
(Registration is free)

All songs owned by corresponding publishing company. If you make copies of any song on this website, be sure to report your usage to CCLI.
Author: DC Talk
Title: Supernatural
Tabbed By: Jeremy Daniel Satterfield the 1st
E- mail: jeremy_satterfie@hotmail.com

Drop D tuning:
DADGBE

Key
/= slide up

Verse 1:
-----|---------||-
-----|-------.-||-
-----|---------||-
-----|-------.-||-
-----|---------||-
-0-*-|---------||-

*= hold 2 measures with flanger. Repeat several times

Pre- Chorus:
---------------------------||-
-------------------------.-||-
-12--12----7--7------------||-
-12--12----7--7----7--7--.-||-
-10--10----5--5----7--7----||-
-------------------7--7----||-
                             
Chorus:
------------------------------------------------
------------------------------------------------
------------------------------------------------
----8--8--8-----0--0--0-----7--7--7-----3--3--3-
----8--8--8-----0--0--0-----7--7--7-----3--3--3-
----8--8--8-----0--0--0-----7--7--7-----3--3--3-
       

--------------------------------
--------------------------------
--------------------------------
----8--8--8-----3--3--3-----10--
----8--8--8-----3--3--3-----10--
----8--8--8-----3--3--3-----10--
    

------------------------------------------------
------------------------------------------------
------------------------------------------------
----8--8--8-----0--0--0-----7--7--7-----3--3--3-
----8--8--8-----0--0--0-----7--7--7-----3--3--3-
----8--8--8-----0--0--0-----7--7--7-----3--3--3-

-------------------------------
-------------------------------
-------------------------------
----8--8--8-----3--3--3-----10-
----8--8--8-----3--3--3-----10-
----8--8--8-----3--3--3-----10-

------------------------------||-
------------------------------||-
------------------------------||-
----8--8--8-----3--3--3-----0-||-
----8--8--8-----3--3--3-----0-||-
----8--8--8-----3--3--3-----0-||-


Lick in verse two:
------------------------||-
---------------------.--||-
------------------------||-
---------------------.--||-
---5---5--0----0--------||-
-0---0------5-----0-----||-


SOLO: (chords same as chorus)
-----------------10v------------------10v-------------------------------
--10h-11--10v----------10h-11--10v----------10h-11--10v-----13v---------
--------------12-------------------12-------------------12--------------
------------------------------------------------------------------------
------------------------------------------------------------------------
------------------------------------------------------------------------


------15----15-------------------10v---17h-18--17------17h-18--17-------
--/13----13----13---------------------------------15--------------13----
-------------------10h-11--10-------------------------------------------
------------------------------12----------------------------------------
------------------------------------------------------------------------
------------------------------------------------------------------------


----------||-
----------||-
----------||-
----------||-
--/7v--7--||-
----------||-

Comments about this tab

guitardude416 - 2004-04-27

the intro is actually (drop d)
:
:
A------------------------------------
E-0-0-0-0--7-7-7-7--8-8-8-8--7-7-7-7-


JamesOsborn - 2004-07-17

The tab sounds OK, but the solo tab at the end basically goes like this:
(drop D)
-----------------------------------------------------
-10/11-10-----10/11-10----10/11-10-------------------
------------------------------------------12---------
----------12-----------12-----------10-10/-----------
-----------------------------------------------------
-----------------------------------------------------
I think it's repeated 3 times total. There is a funky little part after you've played that twice, but it gets lost in the music so just go back to the chorus until you get to the 3rd repeat of this tab


Dark Tofu - 2005-06-28

GuitarDude that intro is all
bass there is no guitar that
goes
-000-777-888-777
that is the bass


darkturd - 2006-08-24

"dark tofu" the bass is 000-7777-8888-7777


Add a comment/correction

Complimentary Christian Ringtones
Dadamobile and CGR have teamed up to bring your favorite Christian artists right to your phone. Sign up today and get 10 complementary ringtones!
Tab Country
Did you know CGR has a sister site w/ country guitar tabs? Well we do! Its called Tab Country. It has a great archive with a lot of country tabs.
Rockin Tabs
Are you looking for a site that has rock guitar tabs? Then Rockintabs.com is the place for you. It is a budding site with many rock guitar tabs. Submit your tab today.
Tab Gallery
Tab Gallery has a compilation of christian, rock, and country tabs all in one place. Come visit us.