Guitar Tabs
song title    band name

Join Us Today!

Don't strum alone...
be a part of the largest online Christian music community. Browse thousands of guitar tabs and chat w/ musicians like yourself.


It's Free!

Ghoti Hook - Body Juggler

This tab has not yet been rated for accuracy.Sorry, but you must be logged in to rate this tab.
Click here to log-in, or you can click here to register.
(Registration is free)

All songs owned by corresponding publishing company. If you make copies of any song on this website, be sure to report your usage to CCLI.
Song: Body Juggler
Band: Ghoti Hook
CD: Sumo Suprise
Record Label: Tooth and Nail

well me and kyle have been playin and found this really cool song but it
was never finished i was terribly mad so we are goin to finish it fer ya'all



~ hold 


Intro/Verses (all verses)

--------------------------------------------------------
--------------------------------------------------------
------5-------5------5----------------------------------
--5~--5---5---5--5---5---5---3--------------------------
--5~--3---5---3--5---3---5---3--------------------------
--3~------3------3-------3---1--------------------------



Chorus

--------------------------------------------------------
--------------------------------------------------------
-----------5------------5-------------------------------
---5---3---5---5---3~---5-------------------------------
---5---3---3---5---3~---3-------------------------------
---3---1-------3---1~-----------------------------------


Bridge

-------------------
-------------------
---------------5---            x 4
---5---7---3---5--- 
---5---7---3---3---
---3---5---1-------





There that is the song most of it is correct if there is any comments,
complaints or just pure happy happy joy joy in it let me know at
micahortega@hotmail.com

thanx

Comments about this tab

No comments/corrections found. Add your own

Complimentary Christian Ringtones
Dadamobile and CGR have teamed up to bring your favorite Christian artists right to your phone. Sign up today and get 10 complementary ringtones!
Tab Country
Did you know CGR has a sister site w/ country guitar tabs? Well we do! Its called Tab Country. It has a great archive with a lot of country tabs.
Rockin Tabs
Are you looking for a site that has rock guitar tabs? Then Rockintabs.com is the place for you. It is a budding site with many rock guitar tabs. Submit your tab today.
Tab Gallery
Tab Gallery has a compilation of christian, rock, and country tabs all in one place. Come visit us.