Guitar Tabs
song title    band name

Join Us Today!

Don't strum alone...
be a part of the largest online Christian music community. Browse thousands of guitar tabs and chat w/ musicians like yourself.


It's Free!

Project 86 - Little Green Men

This tab has been rated a 5.00 out of 5 for accuracy. (2 votes)Sorry, but you must be logged in to rate this tab.
Click here to log-in, or you can click here to register.
(Registration is free)

All songs owned by corresponding publishing company. If you make copies of any song on this website, be sure to report your usage to CCLI.
Song: Little Green Men
Album: Truthless Heroes
Artist: Project 86
Tabbed by: Mike Driedger
Tunning: Drop D (D,A,D,G,B,E)

This Was Tabbed By Me so therefor you can't say its yours.

This is easy to play and it sounds awesome with a pedal 
to do all the effects.
Please E-Mail Me at Bomberman_Mike@hotmail.com and
tell me what you think of this tab, send any comments,corrections etc
(Although there shouldn't be any thing wrong with this tab)enjoy!
The order of all the riffs will be athe bottom of the page. It is very long
but its good.

Riff 1- Intro ( this is the slide up at the start, Just play it
the first time then ignore it).
E------
A------
G------
D--2/9-
A--2/9-
D--2/9-

Riff 2 -Intro
E----------------------
A----------------------
G--11-11---12-12\11-7-9
D--------9-------------
A--9--9--9-10-10\9--5-7
D--------9-------------

Riff 3 (Play this at the end of the intro)
E------
A------
G-11\--
D-9\---
A-9\---
D-9\---

Riff 4
E----------------------------
A----------------------------
G----------------------------
D-----3h4p3h(4)-------3h4p3-0
A--2-2----------2-2----------
D----------------------------

Riff 5
E--
A--
G--
D--5-5-5-5h7-7-7-7h9-9
A--5-5-5-5h7-7-7-7h9-9
D--5-5-5-5h7-7-7-7h9-9

Riff 6 ( You'll need a pedal with a wah, flanger 
and light phaser for this)
E---------------------
A---------------------
G---------------------
D---------------------
A--2h5-0-2-0-2-0-2-0-2
D---------------------


Riff 7
E-----------------------
A-----------------------
G-----------------------
D--(9)-12-12-12\7-7--9-9
A--(9)-12-12-12\7-7--9-9
D--(9)-12-12-12\7-7--9-9

Riff 8
E-------------------------------------
A-------------------------------------
G-------------------------------------
D--9-9-9-9\5-5-5-5\4-4-4-4h5p4-4h5p4p0
A--9-9-9-9\5-5-5-5\4-4-4-4h5p4-4h5p4p0
D--9-9-9-9\5-5-5-5\4-4-4-4h5p4-4h5p4p0

Riff 9
E-----
A-----
G-----
D--9\-
A--9\-
D--9\-

Riff 10
E--------------------------------------------
A--------------------------------------------
G--------------------------------------------
D--5-5--5-5--5-5--5-5--7-7--7-7--7-7--7-7-9\-
A--5-5--5-5--5-5--5-5--7-7--7-7--7-7--7-7-9\-
D--5-5--5-5--5-5--5-5--7-7--7-7--7-7--7-7-9\-

Riff-11
E----------
A----------
G----------
D--9-9--9-9
A--9-9--9-9
D--9-9--9-9

Riff 12
E-----------------
A-----------------
G--4-4------------
D--4-4-----3h4p3-0
A--2-2---2--------
D-----------------

Riff 13 ( last Riff!)
E---------
A---------
G--7-(7)--
D--7-(7)--
A--5-(5)--
D---------

Key
-----------
\-Slide down
/-Slide up
()-Hold Chord
h-Hammer on
P-Pull off

Riff Order  (this is very long, just thought I'd warn you.)
------------
Riff1-1x           
Riff2-4x
Riff3-1x
Riff4-11X
Riff5-1x
Riff6-1x
Riff5-1x
Riff6-1x
Riff7-1x
Riff8-2x
Riff9-1x
Riff4-9x
Riff5-1x
Riff6-1x
Riff5-1x
Riff6-1x
Riff7-1x
Riff8-2x
Riff10-1x
Riff9-1x
Riff4-8x
Riff11-1x
Riff5-1x
Riff6-1x
Riff5-1x
Riff6-1x
Riff5-1x
Riff6-1x
Riff5-1x
Riff6-1x
Riff7-1x
Riff8-2x
Riff2-8x
Riff12-3x
Riff13-1x
There, Thats all she wrote.  Sorry about the long, long,long riff order,
if you find a shorter and better way to write the riff order, please and
by all means E-Mail me with it so I can do it for my self as well as others.
Bomberman_mike@hotmail.com 

Comments about this tab

Bind Guitarist - 2004-05-18

Riff (with envelope filter)....i think

d-----4p0-3h4p3-0---4p0-3h4-3p0---
a-2-2-------------2---------------


ChurchPunk 2 - 2005-04-05

Hey, I think the guy above me is right. Actually, I know he is. The Truthless Heroes CD is one of thoes enhanced CD things. So if you put it on your computer you get a cool mini-movie thing. He looks like he plays it about the way the guy above me says.


Bind Guitarist - 2005-04-12

I was pretty sure I got it right cuz I have alooooot of video of them playing live and I learn the songs from there. If anyone has any questions hit me up bad_habit_6@hotmail.com. www.myspace.com/bind


ChurchPunk 2 - 2005-05-13

Wait...I know Randy plays some note on the 5'th fret in the movie. So mabey its alittle off.


Add a comment/correction

Complimentary Christian Ringtones
Dadamobile and CGR have teamed up to bring your favorite Christian artists right to your phone. Sign up today and get 10 complementary ringtones!
Tab Country
Did you know CGR has a sister site w/ country guitar tabs? Well we do! Its called Tab Country. It has a great archive with a lot of country tabs.
Rockin Tabs
Are you looking for a site that has rock guitar tabs? Then Rockintabs.com is the place for you. It is a budding site with many rock guitar tabs. Submit your tab today.
Tab Gallery
Tab Gallery has a compilation of christian, rock, and country tabs all in one place. Come visit us.