Guitar Tabs
song title    band name

Join Us Today!

Don't strum alone...
be a part of the largest online Christian music community. Browse thousands of guitar tabs and chat w/ musicians like yourself.


It's Free!

DC Talk - So Help Me God

This tab has been rated a 4.50 out of 5 for accuracy. (6 votes)Sorry, but you must be logged in to rate this tab.
Click here to log-in, or you can click here to register.
(Registration is free)

All songs owned by corresponding publishing company. If you make copies of any song on this website, be sure to report your usage to CCLI.
Artist:  DC Talk
Song:  So Help Me God
Album: Jesus Freak
Submitted by Matthew D. (matt110_@excite.com)

This is just the intro.  I know the whole song so if you want 
any other part to it like a solo or something, just mail me.  This is more
accurate than the other one for this song.

INTRO:
        E         Gadd9        A7
E----------------------------------------0-
B---------0----------3----------2-----3----
G------1-----------2---------------0-------
D----------------0-----------2-------------
A----2---------------------0---------------
E--0-----------3---------------------------

     E7          Gadd9         D         Cadd9      Gm/Bb
E-----------------------------3--2--------3--------------3-
B-------------------3--------------3------3----------3-----
G--------1------------2---------------2---0----0-----0-----
D------0----------0-----------0-----------2----------0-----
A----2------------------------------------3----------1-----
E-0-------------3------------------------------------------


E-----------------------------------------------------------------------
B--10b--8--------------------------10b--8--------10b---10---(10)\-------
G--10b--8--------------------------10b--8--------10b---10---(10)\-------
D-----------10--8---------------------------10-8------------------------
A------------------10--8--6\----x-x-------------------------------------
E-------------------------------x-x-------------------------------------

E---------------------------------------------8-----8\-------
B------10b--8---------------------10b--8------11b------------
G------10b--8---------------------10b--8---------------------
D-------------10-8-----------------------10-8----------------
A--x-x-------------10-8-6\----x-x----------------------------
E--x-x------------------------x-x----------------------------

E-------------------------------------(8)(10)(10)(10)---------------
B------8-8-8-8-x-x---------------------8--10--10--10----------------
G------8-8-8-8-x-x---------------------8--10--10--10--8----8--(8)---
D--x-x---------x-x--8------7--(7)\--x-------------------10--------10
A--x-x--------------------------------------------------------------
E-------------------------------------------------------------------

E-------------------------------------------------------------------------
B---------8--8--8--8--x-x-----------------/18-----------------------------
G---------8--8--8--8--x-x-----------------------8-------------------------
D(10)\-x--------------x-x---8---7---(7)\------------10--8-----------------
A-----------------------------------------------------------10\8----6-----
E------------------------------------------------------------------------8\

Comments about this tab

Jaewalkin - 2005-01-08

way to use the book


Jaewalkin - 2005-01-08

though i have to say, if you really did do that by ear, you have a God-given talent!


AnthonyM1987 - 2005-06-21

Its not that hard if you just break it down and slow it down.


Add a comment/correction

Complimentary Christian Ringtones
Dadamobile and CGR have teamed up to bring your favorite Christian artists right to your phone. Sign up today and get 10 complementary ringtones!
Tab Country
Did you know CGR has a sister site w/ country guitar tabs? Well we do! Its called Tab Country. It has a great archive with a lot of country tabs.
Rockin Tabs
Are you looking for a site that has rock guitar tabs? Then Rockintabs.com is the place for you. It is a budding site with many rock guitar tabs. Submit your tab today.
Tab Gallery
Tab Gallery has a compilation of christian, rock, and country tabs all in one place. Come visit us.