Guitar Tabs
song title    band name

Join Us Today!

Don't strum alone...
be a part of the largest online Christian music community. Browse thousands of guitar tabs and chat w/ musicians like yourself.


It's Free!

Project 86 - S.M.C.

This tab has been rated a 5.00 out of 5 for accuracy. (2 votes)Sorry, but you must be logged in to rate this tab.
Click here to log-in, or you can click here to register.
(Registration is free)

All songs owned by corresponding publishing company. If you make copies of any song on this website, be sure to report your usage to CCLI.
Artist: Project 86
Song: S.M.C.
Album: Truthless Heroes
Transcribed by: Matthew Cassetta (sk8onconcrete@aol.com)


Ok, this is in dropped D tuning (regular tuning and then
drop the low E string one step). There is heavy distortion
throughout the entire song. The bridge was wrong in the 
other tabs, so I fixed it.



()=harmonic

Intro/Verse                     x4                  x1
E---------------------------------|-10-10-10-10---8---| 
B---------------------------------|---9--9--9--9-7----| 
G---------------------------------|-------------7-----| 
D-0-0-0-3-3-3-5-5-6-6-6-5-5-5-3-3-|-------------------| 
A-0-0-0-3-3-3-5-5-6-6-6-5-5-5-3-3-|-------------------| 
D-0-0-0-3-3-3-5-5-6-6-6-5-5-5-3-3-|-------------------| 


pre chorus (pt.1)                                    
E-----------------------------------------------------|
B-----------------------------------------------------|
G-----------------------------------------------------|
D-33333333-55555555-7---------------------------------|
A-11111111-33333333-5---------------------------------|
D-------------------(33333333333333)------------------| 


pre chorus (pt.2)                                     
E-----------------------------------------------------| 
B-----------------------------------------------------| 
G---------------------------------555-----------------| 
D-33333333-55555555-7775777577757-333-----------------| 
A-11111111-33333333-5555555555555---------------------| 
D-----------------------------------------------------| 

Chorus                                 
E-----------------------------------|-----------------|
B-----------------------------------|-----------------|
G------------------77---------3333--|-----------------|
D-0-X-6-5-33-X-6-5-XX-6-5-333-3333--|--0-0-0----------|
A-0-X-6-5-33-X-6-5-55-6-5-333-1111--|--0-0-0----------|
D-0-X-6-5-33-X-6-5----6-5-333-------|--0-0-0----------|            
                        

Bridge (the first part of this is impossible to tab, 
just play the B and high E string while sliding up and 
down the neck for that part)                         
E-----------------------------------------------------|
B-----------------------------------------------------|
G-----------------------------------------------------|
D-----------------------------------------------------|
A----5---6---5----------------------------------------|
D-0-6-0-5-0-6-0-3-5-6-5-3-5---------------------------|



Order:
Intro/Verse x3 (leave the second part out the third time)
Pre Chorus pt.1 x1
Pre Chorus pt.2 x1
Chorus x2
Second part of intro/verse x1
Intro/Verse x2 (leave second part out second time)
Pre Chorus pt.1 x1
Pre Chorus pt.2 x1
Chorus x4
Bridge x1
Chorus x2 (low-fi)
Chorus x4





Hey guys, this is my first tab and it's all a 
transcription by ear,so It's open for ruthless
criticism, e-mail me and tell me what you think.

I hope this helps you, Matt C.,

Comments about this tab

powell1993 - 2006-02-15

sweet tab man


Add a comment/correction

Complimentary Christian Ringtones
Dadamobile and CGR have teamed up to bring your favorite Christian artists right to your phone. Sign up today and get 10 complementary ringtones!
Tab Country
Did you know CGR has a sister site w/ country guitar tabs? Well we do! Its called Tab Country. It has a great archive with a lot of country tabs.
Rockin Tabs
Are you looking for a site that has rock guitar tabs? Then Rockintabs.com is the place for you. It is a budding site with many rock guitar tabs. Submit your tab today.
Tab Gallery
Tab Gallery has a compilation of christian, rock, and country tabs all in one place. Come visit us.