Guitar Tabs
song title    band name

Join Us Today!

Don't strum alone...
be a part of the largest online Christian music community. Browse thousands of guitar tabs and chat w/ musicians like yourself.


It's Free!

This tab has been rated a 2.70 out of 5 for accuracy. (10 votes)Sorry, but you must be logged in to rate this tab.
Click here to log-in, or you can click here to register.
(Registration is free)

All songs owned by corresponding publishing company. If you make copies of any song on this website, be sure to report your usage to CCLI.
Title: Reflector
Artist: Planet Shakers

This tab is 100% correct but if you have any questions email me at davynicnac@hotmail.com
thanks

Intro and verse
    A    C#m  F#m  C#m-D C#m-D
E------------------------------------------------
B------------------------------------------------
G--------6-6-------6-7--6-7----------------------
D--7-7---6-6--4-4--6-7--6-7----------------------
A--7-7---4-4--4-4--4-5--4-5----------------------
E--5-5--------2-2--------------------------------

Chorus
  A      F#m    E        D
E---------------------------------------------------
B---------------------------------------------------
G---------------------------------------------------
D--7------4------2-------7--------------------------
A--7------4------2-------7--------------------------
E--5------2------0-------5--------------------------

Tabbed by David Tweedie

Comments about this tab

Azzaintemple - 2005-12-02

If you want 2 b fancy, it is better to play this the intro.

E
B
G 2 2 6 6 2 2
D 2 2 6 6 2 2 7 7 7 7
A 0 0 4 4 0 0 4-5 4-5
E 2 2

Yeah, if you can figure this out, that is what kris gug plays..Ive seen him do it. and it sounds better.


KawaiiRocker987 - 2006-04-17

the first and the last chord of the chorus... is it suppose 2 be the same? bcoz u named the last chord a 'd' isnt it suppose 2 be 'a'?
juz wanna ask

fnx


Add a comment/correction

Complimentary Christian Ringtones
Dadamobile and CGR have teamed up to bring your favorite Christian artists right to your phone. Sign up today and get 10 complementary ringtones!
Tab Country
Did you know CGR has a sister site w/ country guitar tabs? Well we do! Its called Tab Country. It has a great archive with a lot of country tabs.
Rockin Tabs
Are you looking for a site that has rock guitar tabs? Then Rockintabs.com is the place for you. It is a budding site with many rock guitar tabs. Submit your tab today.
Tab Gallery
Tab Gallery has a compilation of christian, rock, and country tabs all in one place. Come visit us.