Guitar Tabs
song title    band name

Join Us Today!

Don't strum alone...
be a part of the largest online Christian music community. Browse thousands of guitar tabs and chat w/ musicians like yourself.


It's Free!

This tab has been rated a 2.33 out of 5 for accuracy. (3 votes)Sorry, but you must be logged in to rate this tab.
Click here to log-in, or you can click here to register.
(Registration is free)

All songs owned by corresponding publishing company. If you make copies of any song on this website, be sure to report your usage to CCLI.
"Disciple - Back Again"

Tabbed By BiptoN@charter.net

This is a quick crack at it, u can pick out his little tweaks and bends
along with his sweet strum patterns, mostly cause I'm too lazy to tab it
out ;)  This is the general idea though.


This is after the few little ambient notes he plays while the song fades in
play it a 7x on the 8th time through throw that slide in at the end of it

D |---------------------------------|---------------------------------
A |---------------------------------|---------------------------------
F |---------------------------6/7---|----7\---------------------------
C |-0-0-0--0-0--0-0-0-0-0--0--------|----7\---------------------------
G |-0-0-0--0-0--0-0-0-0-0--0--------|----5\---------------------------
C |-0-0-0--0-0--0-0-0-0-0--0--------|---------------------------------

then play this 3x the 4th time around he does a deaden'd strum on the next
set like that he throws a bend somewhere similar to that  

D |----------0------|-----------|--8^(10)v8^(9)------------------------
A |----------5------|--w/wahwah-|--------------------------------------
F |----------7^(9)--|--x-x-x-x--|--------------------------------------
C |-0--0-0----------|--x-x-x-x--|--------------------------------------
G |-0--0-0----------|--x-x-x-x--|--------------------------------------
C |-0--0-0----------|--x-x-x-x--|--------------------------------------

okay now for the next part u come into this from a thick thump thump
thumpin', open string, dedn'd strum 

D |--------------------------------------------------------------------
A |--------------------------------------------------------------------
F |----8---8-----8----7---7----7---------------------------------------
C |----8---8-----8----7---7----7---------------------------------------
G |--0-6-0-6---0-6-0--5-0-5--0-5---------------------------------------
C |--0---0-----0---0----0----0-----------------------------------------

okay now this I'm not too sure about, it's a good pace and for the most
part dedn'd listen to the MP3 for how many counts ya play that coo then it
has that hook part in there 

D |---------------------------|-----------------------------------------
A |---------------------------|-----------------------------------------
F |-7---------7-----------7---|-----------------------------------------
C |-x---------x-----------x---|--5-3-0--3-3-----------------------------
G |-5---------5-----------5---|--5-3-0--3-3-----------------------------
C |-0--0-0-0--0--0-0-0-0--0---|--5-3-0--3-3-----------------------------

play this 3x		then repeat it

D |-----------------|---------------------------------------------------
A |-----------------|---------------------------------------------------
F |-----5/7-----5-7-|---------------------------------------------------
C |-0-0-x-x---0-x-x-|--5--3--0--1-1--0----------------------------------
G |-0-0-3/5~~-0-3/5-|--5--3--0--1-1--0----------------------------------
C |-0-0-------0-----|--5--3--0--1-1--0----------------------------------

I'm gonna skip to the rythm part where he plays some lead cause they just
go through the same stuff for the most part so here it is
Play this 3x pay attention to the details ;)				

D |---------------------------------|-----------------------------------
A |---------------------------------|-----------------------------------
F |---------------------------------|----------8-x-8-x-8----------------
C |-0--0-0--1--1-1--0--0-0--1--1-1--|----------x-x-x-x-x----------------
G |-0--0-0--1--1-1--0--0-0--1--1-1--|--0--0-0--6-x-6-x-6----------------
C |-0--0-0--1--1-1--0--0-0--1--1-1--|--0--0-0-(0)x(0)x(0)---------------



I'm sure you can apply the above, listen carefully, and decipher the rest.
Enjoy.

Comments about this tab

GodrulesWill777 - 2005-03-19

Does anyone know the solo? :)


eclipse_047 - 2005-05-30

could someone please tab wait!


luvvinhawk - 2005-06-02

can ya please be more direct with labeling "verse" "bridge" "chorus" and that stuff


acolyte4Him - 2005-10-23

i'm with ecplise,,, someone tab 'wait'!!!

:-P


Abiyda - 2006-02-10

nice tab, skips some parts though, i also agree, tab the lead please somebody


Disciple Freak - 2006-05-05

this is what u missed, the solo

D----------------------------------------------------------------
A--------------------------------9-9-7---------------------------
F-----------9-7-7------------------------------------------------
C---8~-8-8-7-----8h9-8h9-8h9-8h9---------------------------------
G----------------------------------------------------------------
C----------------------------------------------------------------

D----------------------------------------------------------------
A----------------------------------------------------------------
F----------------------------------------------------------------
C---8h9-8h9-9h10-9h10-10h11-10h11---12/(0)-----------------------
G----------------------------------------------------------------
C----------------------------------------------------------------

thankyou for tabbing this song. god bless. :)


Disciple Freak - 2006-05-05

someone please tab "face"!


Disciple Freak - 2006-05-06

i got the intro also!

F----------------------------------------------
A----------------------------------------------
D--------3-------------------------------------
C----2-3---------------------------------------
G---0-0-0--------------------------------------
C----------------------------------------------

u can figure out all the repeats probaly.

~Disciple Freak~


Disciple Freak - 2006-05-08

and also this is the lead chorus

F-------------------------------------
A-------------------------------------
D-------------------------------------
C-------------------------------------
G-----3---2---3-2---------------------
C--0-0-0-0-0-0------------------------

repeat 2x and then

F-------------------------------------
A-------------------------------------
D-------------------------------------
C------3-2~~--------------------------
G-------------------------------------
C--0-0--------------------------------


Add a comment/correction

Complimentary Christian Ringtones
Dadamobile and CGR have teamed up to bring your favorite Christian artists right to your phone. Sign up today and get 10 complementary ringtones!
Tab Country
Did you know CGR has a sister site w/ country guitar tabs? Well we do! Its called Tab Country. It has a great archive with a lot of country tabs.
Rockin Tabs
Are you looking for a site that has rock guitar tabs? Then Rockintabs.com is the place for you. It is a budding site with many rock guitar tabs. Submit your tab today.
Tab Gallery
Tab Gallery has a compilation of christian, rock, and country tabs all in one place. Come visit us.