Guitar Tabs
song title    band name

Join Us Today!

Don't strum alone...
be a part of the largest online Christian music community. Browse thousands of guitar tabs and chat w/ musicians like yourself.


It's Free!

David Crowder Band, The - Obsession

This tab has been rated a 3.00 out of 5 for accuracy. (1 vote)Sorry, but you must be logged in to rate this tab.
Click here to log-in, or you can click here to register.
(Registration is free)

All songs owned by corresponding publishing company. If you make copies of any song on this website, be sure to report your usage to CCLI.
Obsession
David Crowder Band

**Capo 1st**
these 2 riffs are basically what (i think) he plays through most of the song

E---*3p2h3p2p0------------------------------------------
B----------------3-3/5-5-5/2-2/3------------3-2h3-3/5---
G---------------2---------------------------------------
D--0---------------------------------------0----------0-
A-2------------0----------------------------------------
E-----------------------------------------3-------------

E---*3p2h3p2p0--------------------------------------------------
B----------------3-3/5-5-5/2-2/3------------3-2h3-*4p3-1/2------
G---------------2-----------------------------------------2-----
D------------------------------------------0--------------------
A-2------------0------------------------------------------------
E-----------------------------------------3-----------------2h3-

* the pull offs at the asterisks are very very fast to make the note
sound longer (im making a very big guess at those big chains of hammers
and pull offs heh, actually most of this is a big guess cause its hard to
hear the slides and stuff) *

-karatebob

Comments about this tab

aznechelon - 2004-02-07

You MUST do this song in alternate tuning...either

Eb/Ab/Db/Gb/Bb/Eb: Worst tuning, easy for NOT tuning, but sounds very whimpy
Eb/Ab/Eb/Eb/Bb/Eb: Crowder's personal tuning, he does a lot of songs on it
D/G/D/G/A/D: Personal favorite of mine, Capo up to 1


NXT2HIM'02 - 2004-02-14

I listened to the CD and I used this tab an it sounds almost identical to the CD. The tuning doesn't matter if it sounds like the song.


Add a comment/correction

Complimentary Christian Ringtones
Dadamobile and CGR have teamed up to bring your favorite Christian artists right to your phone. Sign up today and get 10 complementary ringtones!
Tab Country
Did you know CGR has a sister site w/ country guitar tabs? Well we do! Its called Tab Country. It has a great archive with a lot of country tabs.
Rockin Tabs
Are you looking for a site that has rock guitar tabs? Then Rockintabs.com is the place for you. It is a budding site with many rock guitar tabs. Submit your tab today.
Tab Gallery
Tab Gallery has a compilation of christian, rock, and country tabs all in one place. Come visit us.