Guitar Tabs
song title    band name

Join Us Today!

Don't strum alone...
be a part of the largest online Christian music community. Browse thousands of guitar tabs and chat w/ musicians like yourself.


It's Free!

Camp, Jeremy - I Know You're Calling

This tab has been rated a 4.29 out of 5 for accuracy. (14 votes)Sorry, but you must be logged in to rate this tab.
Click here to log-in, or you can click here to register.
(Registration is free)

All songs owned by corresponding publishing company. If you make copies of any song on this website, be sure to report your usage to CCLI.
I Know You’re Calling
By Jeremy Camp
Off the CD "Stay"
Transcribed by The Elyk --> zelphie826@juno.com

Capo 4

INTRO TAB: (2x)
e|------3-------5-----------------------|
B|--------3-------3---------------------|
G|----0-------2-----------------------0-|
D|----------0-----------0-2-0-----0h2---|
A|------------------0h2-------0h3-------|
E|--3-----------------------------------|

VERSE 1:
G D G C
G D Em C
G D G C
G D Em C
Em D C
Em D C
Em D C

CHORUS: 
G D C
G D C
G D C
Em D C

VERSE 2:
Same as verse chords above

CHORUS

BRIDGE: THIS PART IS PLAYED OPEN!!
C#m G#m B F# 
C#m G#m F#
C#m G#m B F# E B

well, thats it. pretty simple, and a cool song, too. if you have any questions, 
like for lyrics and stuff, just email me, and i'd be more than happy to get 
those to you! enjoy!

Comments about this tab

Cmd777 - 2004-01-27

I don't know about the Bridge, other than that, the song is fairly accurate


Cmd777 - 2004-01-27

For those that are not fast enough to take the CAPO off during the Bridge and put it back on for the chorus that follows. The chords are:

Am Em G D
Am Em D
Am Em G D C


Elius - 2005-03-04

in the verse where there is Em, it is totally off. it should be:

D Em C


ChristainPepper - 2005-03-27

the beginnings wrong because i love this song and after 30 minutes of hard work ive figured out the first set of strings is
b and you just play the "main" chord youll get it lol but i need longer to get all of it :)
B
e--0
b--0
g--4
D--4
A--2
E--0


IceBryce - 2005-03-31

verse
e|---------
B|---------
G|--8--6--4
D|--8--6--4
A|--6--4--2
E|---------
fill
e|------
B|------
G|--6--4
D|--6--4
A|--4--2
E|------
chorus
e|--------------
B|--------------
G|--8--4-----6--
D|--8--4--4--6--
A|--6--2--4--4--
E|--------2-----

and thats it ... no capo not fuss :)
listen to the song you'll get the jists



RiNGEiSEN1986 - 2005-09-06

i think the intro should be this...
INTRO TAB: (2x)
e|------3-------5------------------------|
B|--------3-------3----------------------|
G|----0-------2------------0-----------0-|
D|----------0------------0---0-----0h2---|
A|--------------------0h2-------0h2------|
E|--3------------------------------------|


jeffku - 2005-09-21

I've tabbed this a lot more accurate. it should sound 99% correct.
Capo 4

INTRO TAB: (2x)

e|------3-------5------------------------|
B|--------3-------3--------3-----------3-|
G|------------2--------------0---------0-|
D|----0-----0------------0---------0h2-2-|
A|--------------------0h2-------2h3----3-|
E|--3------------------------------------|


jvoudouris - 2008-05-09

Good work jeffku...just thought i'd tell you good job lol. I sat here for about 30 minutes trying to figure out how the beginning tabs were REALLY played, and then i finally figured it out so i figured that i would post it down here...just to find that your had already done an awesome job....but it was fun hahah
=)


Add a comment/correction

Complimentary Christian Ringtones
Dadamobile and CGR have teamed up to bring your favorite Christian artists right to your phone. Sign up today and get 10 complementary ringtones!
Tab Country
Did you know CGR has a sister site w/ country guitar tabs? Well we do! Its called Tab Country. It has a great archive with a lot of country tabs.
Rockin Tabs
Are you looking for a site that has rock guitar tabs? Then Rockintabs.com is the place for you. It is a budding site with many rock guitar tabs. Submit your tab today.
Tab Gallery
Tab Gallery has a compilation of christian, rock, and country tabs all in one place. Come visit us.