Guitar Tabs
song title    band name

Join Us Today!

Don't strum alone...
be a part of the largest online Christian music community. Browse thousands of guitar tabs and chat w/ musicians like yourself.


It's Free!

DC Talk - Red Letters

This tab has been rated a 2.50 out of 5 for accuracy. (2 votes)Sorry, but you must be logged in to rate this tab.
Click here to log-in, or you can click here to register.
(Registration is free)

All songs owned by corresponding publishing company. If you make copies of any song on this website, be sure to report your usage to CCLI.
Title: Red Letters
Author: DC Talk
Transcribed by: Jeremy Satterfield
E-mail: satt@feist.com

P.M.= Palm Mute       x= mute
D.D.= Digital Delay   /= slide up
(1)= Echoed Note

note: In this song a distorted guitar is used. They use a delay on the
single notes, but they turn the delay off to play power chords. I use a
Boss Digital Delay pedal (DD-5) with the following settings:
mode= 3 (200-800ms)
delay time= 1/4 of the way up
feedback= 3/8 of the way up
effect level= 5/8 of the way up

Chorus:
---------------------------------------------------
---------------------------------------------------
---------------------------------------------------
---------------------------------------------------
---------3-(3)-(3)-(3)-5-(5)-(5)-(5)-3-(3)-(3)-(3)-
---3-(3)-------------------------------------------
P.M________________________________________________
D.D._______________________________________________


-------------------||------------------------||
------------------.||------------------------||
-------------------||--8----4----------------||
------------------.||--x----x---6----8----3--||
-------------------||--6----2---x----x----x--||
--1-(1)-6-(6)-(6)--||-----------4----6----1--||
_________________|   
_________________|

Verse 2:
(with Digital Delay)
-----------------------------------------||
----------------------------------------.||
--5/9------------------------------------||
--------3---6-5-6---3---6-5-6------------||
----------3-----------3--------3---6--5-.||
---------------------------------3-------||

(delay off)
-----------------------||
-----------------------||
--8--8-8--7--7-7--4----||
--x--x-x--x--x-x--x--6-||
--6--6-6--5--5-5--2--x-||
---------------------4-||

Comments about this tab

No comments/corrections found. Add your own

Complimentary Christian Ringtones
Dadamobile and CGR have teamed up to bring your favorite Christian artists right to your phone. Sign up today and get 10 complementary ringtones!
Tab Country
Did you know CGR has a sister site w/ country guitar tabs? Well we do! Its called Tab Country. It has a great archive with a lot of country tabs.
Rockin Tabs
Are you looking for a site that has rock guitar tabs? Then Rockintabs.com is the place for you. It is a budding site with many rock guitar tabs. Submit your tab today.
Tab Gallery
Tab Gallery has a compilation of christian, rock, and country tabs all in one place. Come visit us.