Guitar Tabs
song title    band name

Join Us Today!

Don't strum alone...
be a part of the largest online Christian music community. Browse thousands of guitar tabs and chat w/ musicians like yourself.


It's Free!

Project 86 - Stein's Theme

This tab has not yet been rated for accuracy.Sorry, but you must be logged in to rate this tab.
Click here to log-in, or you can click here to register.
(Registration is free)

All songs owned by corresponding publishing company. If you make copies of any song on this website, be sure to report your usage to CCLI.
Project 86
Stein's Theme  --------------> greatest song on earth............
drawing black line s
BEC Recordings
Tabbed by Pat
Drop D Tuning 

I saw there wasnt a very complete version of this song on the net, so
came here and wrote out a good one, very accurate, fun to play. Peace.

Intro
there is an overlayed track in the intro this is the first guitar part and
the second is below, to be played in unison. <> signals the second parts
starting point

E----------------------------------------------
B----------------------------------------------
G-----<>---------------------------------------
D--0-0-0-0-0-0-0-0-0-0-0-0-0-0-0---0-x-x-0~~~--
A--6-6-6-6-6-6-6-6-6-6-6-6-6-6-6---0-x-x-0~~~--
D--0-0-0-0-0-0-0-0-0-0-0-0-0-0-0---0-x-x-0~~~--

E-----------------------
B-----------------------
G-----------------------
D--7-0-0-6-0-0-1-0-0-3--
A-----------------------
D-----------------------

Intro continued, - distorted, no other guitar parts, this leads to the
awesome bass line, guitar part 3:

E-----------------------
B-----------------------
G-----------------------
D-----------------------
A-----------------------
D--7-0-0-6-0-0-1-0-0-3--

I dont play bass, but here would be a bass line that would continue
through the verse

Verse (4x)
 Repeat as nessecary

E------------------------------------
B------------------------------------
G------------------------------------
D--0-x-0-x-1-0-x-0-x-1h0-0-x--3~~~---
A--0-x-0-x-1-0-x-0-x-1h0-0-x--3~~~---
E--0-x-0-x-1-0-x-0-x-1h0-0-x--3~~~---

First Chorus x2 - of course it is distorted, its Project 86!

E-------------------------
B-------------------------
G--------------------7~~~-
D---6-6-5-5-0-0h1~~------- Then restart with "We arent playin......"
A---6-6-5-5-0-0h1~~-------
D---6-6-5-5-0-0h1~~-------

Imeaditly after chorus play this 

E-------------------------------------
B-------------------------------------
G-------------------------------------
D-----------------------0h1-0h1-0h1---
A-----------------------0h1-0h1-0h1---
D--7-0-0-6-0-0-1-0-0-3--0h1-0h1-0h1---


Verse (4x)
Repeat as nessecary once again but this time there is another line that
is muted see below this line the bass is out for a second then fires back in

E------------------------------------
B------------------------------------
G------------------------------------
D--0-x-0-x-1-0-x-0-x-1h0-0-x--3~~~---
A--0-x-0-x-1-0-x-0-x-1h0-0-x--3~~~---
E--0-x-0-x-1-0-x-0-x-1h0-0-x--3~~~---
   
E------------------------                                      ---------
B------------------------                                      ---------
G------------------------                                      ---------
D--7-0-0-6-0-0-1-0-0-3--- repeat this through this verse, then ---7~~~--
A------------------------                                      ---------
D------------------------                                      ---------

Second heavy chorus

E-------------------------
B-------------------------
G-------------------------
D---0-6-5-0-0-0-0-0-0-0---
A---0-6-5-0-0-0-0-0-0-0---
D---0-6-5-0-0-0-0-0-0-0---

bridge

E--------------------------------------
B--------------------------------------
G--------------------------------------
D--0-x-0-x-1-0-x-0-x-1h0-0-x--5~5~5~---
A--0-x-0-x-1-0-x-0-x-1h0-0-x--5~5~5~---
D--0-x-0-x-1-0-x-0-x-1h0-0-x--5~5~5~---


E-----------------------
B-----------------------
G-----------------------
D-----------------------
A-----------------------
D--7-0-0-6-0-0-1-0-0-3--

And it breaks right into the outro

   guitar part 1
E---------
B---------
G---------
D--0-0-0--       two and one playing in unison, again another terrific overlay
A--0-0-0--
D--0-0-0--
  guitar part 2 - harmonics on 5 frets
E---------
B---------
G---------    repeat this a few times - listen to cd for timing
D--5*-5*--
A--5*-5*--  
D--5*-5*--

Ending - and the bass is know full blown and it ends on this
E-------------------
B-------------------
G-------------------
D--0-0h1-1-0-x-x-x-- **just kind of muffle the end and let the bass do the rest
A--0-0h1-1-0-x-x-x--
E--0-0h1-1-0-x-x-x--

Enjoy playing this terrific song, listen to it for timing and amount of
verses, and chorus Peace out in Jesus - Patman

Comments about this tab

No comments/corrections found. Add your own

Complimentary Christian Ringtones
Dadamobile and CGR have teamed up to bring your favorite Christian artists right to your phone. Sign up today and get 10 complementary ringtones!
Tab Country
Did you know CGR has a sister site w/ country guitar tabs? Well we do! Its called Tab Country. It has a great archive with a lot of country tabs.
Rockin Tabs
Are you looking for a site that has rock guitar tabs? Then Rockintabs.com is the place for you. It is a budding site with many rock guitar tabs. Submit your tab today.
Tab Gallery
Tab Gallery has a compilation of christian, rock, and country tabs all in one place. Come visit us.