Guitar Tabs
song title    band name

Join Us Today!

Don't strum alone...
be a part of the largest online Christian music community. Browse thousands of guitar tabs and chat w/ musicians like yourself.


It's Free!

12 Stones - Broken

This tab has been rated a 2.00 out of 5 for accuracy. (2 votes)Sorry, but you must be logged in to rate this tab.
Click here to log-in, or you can click here to register.
(Registration is free)

All songs owned by corresponding publishing company. If you make copies of any song on this website, be sure to report your usage to CCLI.
Broken
By 12 Stones
12 Stones
Wind up Records
tabbed by Pat
Finished version
  This version is a little more accurute than the ones seen previously on
this site, better chorus and introduction, Peace 

     Intro - distorded

  E------------------------------------------------------------------x--
  B------------------------------------------------------------------x--
  G---------------------5-5-3-3-3-5-5--7-7-7-/10-10--3-3-3-3-3-/5-5--5^-
  D---x-5-x-x-5-x-x-5-x-5-5-3-3-3-5-5--x-x-x--x--x---x-x-x-x-x--x-x--x--
  A---0-5-x-0-5-x-0-5-x-3-3-1-1-1-3-3--5-5-5-/8--8---1-1-1-1-1-/3-3--x--
  E---0-5-x-0-5-x-0-5-x----------------------------------------------x--

       Intro - continued  

 Natural Harmonics
    fastly played like less than 1 second of time goes by
  -------------
  -------------
  -------------
  ---*5--*5----
  -------------
  -------------
  

          Verse - clean channel, with light chorus effect and maybe trem.
      to be played 6 times              
  E--------------------------------------------
  B--------------------------------------------
  G---------2----------------------------------
  D-------3---3-2h3-2h3-0----------------------
  A-----5------------------1-3-5---------------
  E------------------------------x-------------

         Chorus - Distorted listen to song for amount of times it is played

  E------------------------------------------------------------------
  B------------------------------------------------------------------
  G---------------------5-5-3-3-3-5-5--7-7-7-/10-10--3-3-3-3-3-/5-5--
  D---x-5-x-x-5-x-x-5-x-5-5-3-3-3-5-5--x-x-x--x--x---x-x-x-x-x--x-x--
  A---0-5-x-0-5-x-0-5-x-3-3-1-1-1-3-3--5-5-5-/8--8---1-1-1-1-1-/3-3--
  E---0-5-x-0-5-x-0-5-x----------------------------------------------
  

  I didnt have time to put the solo togethar so i found this off the net
and played around with it, it is pretty darn close
  
  E---------------------------------------------------------------------
  B---------------------------------------------------------------------
  G---------------------------------------------------------------------
  D---------------------------------------------------10-10-8-8-7-7-8-8-
  A-----8-8-7-7-8-8-10-10-8-8-7-7-5-5-----8-8-7-7-8-8-------------------
  E-0-0-------------------------------8-8-------------------------------
    
  |---------------------------------------------------------------------
  |---------------------------------------------------------------------
  |---------------------------------------------------------------------
  |---------------------------------------------------10-10-8-8-7-7-8-8-
  |-----8-8-7-7-8-8-10-10-8-8-7-7-5-5-----8-8-7-7-8-8-------------------
  |-0-0-------------------------------8-8-------------------------------

  |---------------------------------------------------------------------
  |---------------------------------------------------------------------
  |---------------------------------------------------------------------
  |---------------------------------------------------10-10-8-8-7-7-8-8-
  |-----8-8-7-7-8-8-10-10-8-8-7-7-5-5-----8-8-7-7-8-8-------------------
  |-0-0-------------------------------8-8-------------------------------

  |--------------------------------------------------------------------------
  |--------------------------------------------------------------------------
  |--------------------------------------------------------------------------
  |-----------------------------------------------10-10-10-10-10b-10b-10b-10b  
  |----8-8-7-7-8-8-10-10-8-8-7-7-5-5---8-8-7-7-8-8---------------------------
  |-0-0-----------------------------8-8--------------------------------------

        Outro - same as intro

  E------------------------------------------------------------------x--
  B------------------------------------------------------------------x--
  G---------------------5-5-3-3-3-5-5--7-7-7-/10-10--3-3-3-3-3-/5-5--5^-
  D---x-5-x-x-5-x-x-5-x-5-5-3-3-3-5-5--x-x-x--x--x---x-x-x-x-x--x-x--x--
  A---0-5-x-0-5-x-0-5-x-3-3-1-1-1-3-3--5-5-5-/8--8---1-1-1-1-1-/3-3--x--
  E---0-5-x-0-5-x-0-5-x----------------------------------------------x--

I didnt have time to put up the amount of times the choruses and verses are
played, thats something you can figure out, this tab sounds pretty good, try
playing this in open c tuning that is hardcore, Listen to song for timing, buy
their great cd. Peace in Jesus
       Pat

Comments about this tab

josh-rock - 2004-04-26

ok.... has anyone noticed that the Picking dosn't sound right on any of the tabs? here's what you do... tune your 'B' string down to 'A' then use that instead of the 'g' string and hit it almost between every other note... listen to the song and see what I mean.. I'm gonna tab it out soon and post it. Good luck! JOSH


mrlinky - 2005-01-14

You need to play the solo in drop D cause in E it is messed.


guitarcordfreak - 2006-04-12

sorry but no!


SDR07 - 2007-10-02

If you look at the rest of the songs on this album you will find most played with tunning as follows: CGCFAD if you do this you will find that the intro is 2nd fret 5th and 6th tring and then power cord on 5th fret 5th string and then to 3rd fred 5th string. the clean part is as follows top number being fret and second being string: 2/4, 0/3,0/2,0/3,4/4,4/3,4/4,4/33/5,2/4,0/3,2/4,0/4H2/4,0/3,0/2,0/3 I know this would be better written in TAB but I am new at this site the rest of the song is pretty easy to figure out and you are pretty close with you TAB above but if you translate it to the tuning above you will find it is much easier and natural to play. But I do thank you for the head start on figuring out this song.

Rock on
SDR07


Add a comment/correction

Complimentary Christian Ringtones
Dadamobile and CGR have teamed up to bring your favorite Christian artists right to your phone. Sign up today and get 10 complementary ringtones!
Tab Country
Did you know CGR has a sister site w/ country guitar tabs? Well we do! Its called Tab Country. It has a great archive with a lot of country tabs.
Rockin Tabs
Are you looking for a site that has rock guitar tabs? Then Rockintabs.com is the place for you. It is a budding site with many rock guitar tabs. Submit your tab today.
Tab Gallery
Tab Gallery has a compilation of christian, rock, and country tabs all in one place. Come visit us.