Guitar Tabs
song title    band name

Join Us Today!

Don't strum alone...
be a part of the largest online Christian music community. Browse thousands of guitar tabs and chat w/ musicians like yourself.


It's Free!

Thousand Foot Krutch - When In Doubt

This tab has been rated a 1.25 out of 5 for accuracy. (4 votes)Sorry, but you must be logged in to rate this tab.
Click here to log-in, or you can click here to register.
(Registration is free)

All songs owned by corresponding publishing company. If you make copies of any song on this website, be sure to report your usage to CCLI.
Band - Thousand Foot Krutch
Song - When in Doubt
DJD Entertainment
Tabbed by Pat

This is very close to being the actual song alot more accurate than others.

X = Palm mute I have in parenthesis ( ) the notes to mute
^ = Bend
h = Hammer on
P.M. = Hold note(s)

Standard Tuning

Intro
e------------------------------------------------------------
b------------------------------------------------------------
g-------7----------------------------------------------------
d-----7----7----------7----------9-------------5-------------
a---5--------5------7----7-----9---9---------5---5-----------
e--------------0--5--------5/7-------7-7\3-3-------3/5-5-5---

Repeat through opening versus 5x


Then in the verse it becomes heavily distorted with
a muffled sound to it.
                           P.M...............
e------------------------------
b------------------------------
g------------------------------
d---5---x(5)-x(5)-x-x-x-5/7----
a---5---x(5)-x(5)-x-x-x-5/7----
e---3---x(3)-x(3)-x-x-x-3/5----

Faster part 2x

e----------------------------------------------------------
b----------------------------------------------------------
g----------------------------------------------------------
d---7-7-5-5-4-4---7-7-5-5-4---7-7-5-5-4-4---0-0-4-4-5--5---
a----------------------------------------------------------
e----------------------------------------------------------


Bridge
Repeat  this part 2x
e-------------------------------------------------------
b-------------------------------------------------------
g---7xx(7)----------------------------------------------
d---7xx(7)---7xx(7)---9-9-9xx----5xxx(5)----------------
a---5xx(5)---7xx(7)---9-9-9xx----5xxx(5)----------------
e------------5xx(5)---7-7-7xx----3xxx(3)----------------

Bridge (Continued)
after repeating the first part it slides into this part
this part of the bridge is also reapeted twice
2x
e------------------------------------------------------
b------------------------------------------------------
g----777777--------------------------------------------
d----777777--77777---9999\---5555---/-777--------------
a----555555--77777---9999-\--5555--/--777--------------
e------------55555---7777--\-3333-/---555--------------

Chorus
repeat 2x

e------------------------------------------------------
b------------------------------------------------------
g----777777x-------------------------------------------
d----777777x--77777x----9999\---5555--/-777-7x---------
a----555555x--77777x----9999-\--5555-/--777-7x---------
e-------------55555x----7777--\-3333/---555-5x---------

Solo
2x
e------------------------------------------------------
b------------------------------------------------------
g------------------------------------------------------
d----777/9----7-7-5-5-4-4---777/9-7-7-5-4-4--0-5-5-4-4-
a------------------------------------------------------
e------------------------------------------------------

Ending
The song ends with these notes.
           P.M............................................end.   
e-----------------
b-----------------
g---7--7----------
d---7--7---5-x----
a---5--5---5-x----
e----------3-x----

Comments about this tab

simmonds - 2005-10-21

sorry but the intro is wrongit's
e
b----------------------------------------------
g----9
d--9--9--------9-------11
a77-7--7---9--9-----11---11----7--7
e-------777-77--7-99--9----9755-55-5s7


simmonds - 2005-10-21

it's


Add a comment/correction

Complimentary Christian Ringtones
Dadamobile and CGR have teamed up to bring your favorite Christian artists right to your phone. Sign up today and get 10 complementary ringtones!
Tab Country
Did you know CGR has a sister site w/ country guitar tabs? Well we do! Its called Tab Country. It has a great archive with a lot of country tabs.
Rockin Tabs
Are you looking for a site that has rock guitar tabs? Then Rockintabs.com is the place for you. It is a budding site with many rock guitar tabs. Submit your tab today.
Tab Gallery
Tab Gallery has a compilation of christian, rock, and country tabs all in one place. Come visit us.