Guitar Tabs
song title    band name

Join Us Today!

Don't strum alone...
be a part of the largest online Christian music community. Browse thousands of guitar tabs and chat w/ musicians like yourself.


It's Free!

DC Talk - My Will

This tab has been rated a 3.00 out of 5 for accuracy. (1 vote)Sorry, but you must be logged in to rate this tab.
Click here to log-in, or you can click here to register.
(Registration is free)

All songs owned by corresponding publishing company. If you make copies of any song on this website, be sure to report your usage to CCLI.
Song: "My Will"
Artist: DC Talk
Transcibed by: frail
E-mail: overshadowed@hotmail.com

Intro:D...To view riff for intro go down      
                                                                    
Verse:D     G     D     A     (Asus)  
      D     G     D     A     D    

Chorus I:D     G     A     (Asus)                 
         D     G     D     G                              
         A     G     D     D2    D  

Verse:D     G     D     A     (Asus)
      D     G     D     A     D    

[Repeat Chorus I]

Solo: Em...C..Em..F..F...Em..
      Em...C..Em...(Can't get chord here yet)Em....

Verse:D     G     D     A     (Asus)
      D     G     D     A     D  
[Repeat Chorus I]

Bridge:D     G     D     A      
       D     G     D     A     G 
 
Chorus II:D     G     D     A     (Asus)  
          D     G     D  
          A     G     D     D2    D  
[Repeat Chorus II]
    
Bridge II:G     C     F     Em
          G     C     F     Em
[Repeat Chorus II]
 
Bridge:D     G
       D     A      
  [Fade]

Intro Riff  back up
     1-----------------------------------------2-----------
     2---2H3-------3-------3--3-------3--------3-----------
     3-----------------------------------------2-----------
     4---------0-------0---------0-------0-----0-----------
     5-----------------------------------------0-----------
     6-----------------------------------------------------
Solo Riff  back up
     1---------------------------------------------------0--2--3--2--0-----0-
     2------------------------------------------------------------------3----
     3-----------------------------------------------------------------------
     4--2==>4--2--0---2--4--5---2---4---5--3---3---0--2----------------------
     5--------------2---------3------------------3---------------------------
     6-----------------------------------------------------------------------

     1------------------------------------------------------------------
     2-------------------------------1--0-------------------------------
     3---------------------------2---------2--0-------------------------
     4---2--4--5------2---4--5-------------------3--2-------------------
     5------------3-----------------------------------------------------
     6------------------------------------------------------------------

*Note:  --3==>5-- means to slide the note from the third fret 
                       to the fifth fret
        --7/-5--- means to bend the note on the seventh fret up, 
                       come back down, and switch to the note on 
                       the fifth fret
        --2H3---- means to hit the note on the second fret and "hammer" 
                       on to the note on the third fret

hey, this song just rules...I think itís supposed to be from the Rocketown
Records compilation Exodus. Itís a great song. I picked this up just surfin'.
Peace.
----Josh Thomas

Comments about this tab

No comments/corrections found. Add your own

Complimentary Christian Ringtones
Dadamobile and CGR have teamed up to bring your favorite Christian artists right to your phone. Sign up today and get 10 complementary ringtones!
Tab Country
Did you know CGR has a sister site w/ country guitar tabs? Well we do! Its called Tab Country. It has a great archive with a lot of country tabs.
Rockin Tabs
Are you looking for a site that has rock guitar tabs? Then Rockintabs.com is the place for you. It is a budding site with many rock guitar tabs. Submit your tab today.
Tab Gallery
Tab Gallery has a compilation of christian, rock, and country tabs all in one place. Come visit us.