Guitar Tabs
song title    band name

Join Us Today!

Don't strum alone...
be a part of the largest online Christian music community. Browse thousands of guitar tabs and chat w/ musicians like yourself.


It's Free!

Delirious - Thank You For Saving Me

This tab has been rated a 4.50 out of 5 for accuracy. (2 votes)Sorry, but you must be logged in to rate this tab.
Click here to log-in, or you can click here to register.
(Registration is free)

All songs owned by corresponding publishing company. If you make copies of any song on this website, be sure to report your usage to CCLI.
“Thank You For Saving Me”
Delirious? - Cutting Edge
Martin Smith

Capo 2

 D       D2       D2/C#   G/B      G      Asus      D       D2
 1   2   3   4    1   2   3   4    1   2   3   4    1   2   3   4    
E----2---0---2---|------------3---|----3---------0-|----2---0-------|
B------3---------|----3-----3---3-|------3-----2---|--3---3---3---3-|
G--2-------2—--2-|--2-------------|--0-------2-----|------------2---|
D0---------------|------0---------|----------------|0---------------|
A----------------|4-------2-------|--------0-------|----------------|
E----------------|----------------|3---------------|----------------|


 D       D2       D2/C#   G/B      G       Asus     D       D2
 1   2   3   4    1   2   3   4    1   2   3   4    1   2   3   4    
E----2---0---2---|------------3---|----3---------0-|----2---0-------|
B------3---------|----------3---3-|------3-----2---|--3---3---3---3-|
G--2-------2—--2-|--2---2---------|--0-------2-----|------------2---|
D0---------------|----0-----------|----------------|0---------------|
A----------------|4-------2-------|--------0-------|----------------|
E----------------|----------------|3---------------|----------------|

Every dash “-“ is a 16th note, so most of these are played as eighth notes.
Many thanks to J_skunk@hotmail.com.  I took a few of his chords and added my own 
interpretation.  This is the first line of the song, and it then repeats 
(roughly) the second line over and over... please feel free to adlib :)  For 
those perfectionists, this isn’t identical to MS, but close.  Add your own 
arpeggios and let the Spirit work for you!!  WOooOOHOOOO!!  This is my very first
tab and i just started playing about 6 months ago!!  Forgive me if I have 
misplaced a note, I don’t have my guitar in front of me at the moment.   I’m not 
even a paid member, but would like to contribute to this wonderful website.  
Thanks christianguitar.org!!
korste@excite.com

Comments about this tab

No comments/corrections found. Add your own

Complimentary Christian Ringtones
Dadamobile and CGR have teamed up to bring your favorite Christian artists right to your phone. Sign up today and get 10 complementary ringtones!
Tab Country
Did you know CGR has a sister site w/ country guitar tabs? Well we do! Its called Tab Country. It has a great archive with a lot of country tabs.
Rockin Tabs
Are you looking for a site that has rock guitar tabs? Then Rockintabs.com is the place for you. It is a budding site with many rock guitar tabs. Submit your tab today.
Tab Gallery
Tab Gallery has a compilation of christian, rock, and country tabs all in one place. Come visit us.