Guitar Tabs
song title    band name

Join Us Today!

Don't strum alone...
be a part of the largest online Christian music community. Browse thousands of guitar tabs and chat w/ musicians like yourself.


It's Free!

Dead Poetic - August Winterman

This tab has been rated a 2.00 out of 5 for accuracy. (3 votes)Sorry, but you must be logged in to rate this tab.
Click here to log-in, or you can click here to register.
(Registration is free)

All songs owned by corresponding publishing company. If you make copies of any song on this website, be sure to report your usage to CCLI.
Dead Poetic
August Winterman


VERSE x4

E
B
G
D----9---------------------4-----------------5-------
A----9----x4--------------4----x3----------5----x1 let the fives ring
D----9---------------------4-----------------5-------


Pre CHORUS x2

Guitar 1 repeats verse with slower progression 

Gutiar2
E---------------14--------14---------14--------14------
B---------12--------12----------12-------12---------12--let ring
G


E-----------12-------12---------12-------12
B-----10--------10--------10--------10--------10--let ring
G
  

CHORUS x1

E
B
G
D----5-----7-----4-----5-----7-----9-----7-----4-----5
A----5-----7-----4-----5-----7-----9-----7-----4-----5
D----5-----7-----4-----5-----7-----9-----7-----4-----5


BRIDGE x4

E
B
G
D-----9-----7-----5-----7
A-----9-----7-----5-----7
D-----9-----7-----5-----7


ENDING

Not so sure with this I just know you mess around with 

D---9----
A---9----          this
D---9----


D---7--
A---7--             this
D---7—


D---5--
A---5--              and this
D---5--

Just switch these round till it sounds right to you, and there’d be two guitars of course


OUTROx2  (guitar 2 plays the pre-chorus guitar 2’s part, the 10th,12,14th fret parts)

D---9-------------------------7---------------5----7-----
A---9---hold-----------------7----hold-----5----7-----
D---9-------------------------7---------------5----7-----

Comments about this tab

No comments/corrections found. Add your own

Complimentary Christian Ringtones
Dadamobile and CGR have teamed up to bring your favorite Christian artists right to your phone. Sign up today and get 10 complementary ringtones!
Tab Country
Did you know CGR has a sister site w/ country guitar tabs? Well we do! Its called Tab Country. It has a great archive with a lot of country tabs.
Rockin Tabs
Are you looking for a site that has rock guitar tabs? Then Rockintabs.com is the place for you. It is a budding site with many rock guitar tabs. Submit your tab today.
Tab Gallery
Tab Gallery has a compilation of christian, rock, and country tabs all in one place. Come visit us.