Guitar Tabs
song title    band name

Join Us Today!

Don't strum alone...
be a part of the largest online Christian music community. Browse thousands of guitar tabs and chat w/ musicians like yourself.


It's Free!

Supertones, The - Lift Me Up

This tab has been rated a 3.00 out of 5 for accuracy. (2 votes)Sorry, but you must be logged in to rate this tab.
Click here to log-in, or you can click here to register.
(Registration is free)

All songs owned by corresponding publishing company. If you make copies of any song on this website, be sure to report your usage to CCLI.
Song: Lift me up
Band: Supertones
Cd: Loud and Clear
Copyright: 2000 Supertones Songs (SESAC), We Own Your Songs
Tabbed by: César Olivares (mike_tait_mx@hotmail.com)

This is another song I like from Supertones, and, like always: Hope you enjoy it!
 :)


INTRO:
e------------------------------------------------------------------------------
b----------6---------------6-6---------6---------------6-6---------------------
g-7-7-7-7-7-7-7-7-7-7-7-7-7-7-7-7-7-7-7-7-7-7-7-7-7-7-7-7----------------------
D------------------------------------------------------------------------------
A------------------------------------------------------------------------------
E------------------------------------------------------------------------------


e------------------------------------------------------------------------------
b----------6---------------6-6---------6---------------6-6---------------------
g-7-7-7-7-7-7-7-7-7-7-7-7-7-7-7-7-7-7-7-7-7-7-7-7-7-7-7-7----------------------
D------------------------------------------------------------------------------
A------------------------------------------------------------------------------
E------------------------------------------------------------------------------


VERSE1:
e------------------------------------------------------------------------------
b----------6---------------6-6---------6---------------6-6---------------------
g-7-7-7-7-7-7-7-7-7-7-7-7-7-7-7-7-7-7-7-7-7-7-7-7-7-7-7-7----------------------
D------------------------------------------------------------------------------
A------------------------------------------------------------------------------
E------------------------------------------------------------------------------


e------------------------------------------------------------------------------
b----------6---------------6-6---------6---------------6-6---------------------
g-7-7-7-7-7-7-7-7-7-7-7-7-7-7-7-7-7-7-7-7-7-7-7-7-7-7-7-7----------------------
D------------------------------------------------------------------------------
A------------------------------------------------------------------------------
E------------------------------------------------------------------------------


e------------------------------------------------------------------------------
b------------------------------------------------------------------------------
g------------------------------------------------------------------------------
D----------6---------------6-6---------6---------------6-6---------------------
A-7-7-7-7-7-7-7-7-7-7-7-7-7-7-7-7-7-7-7-7-7-7-7-7-7-7-7-7----------------------
E------------------------------------------------------------------------------


e------------------------------------------------------------------------------
b----------6---------------6-6---------6---------------6-6---------------------
g-7-7-7-7-7-7-7-7-7-7-7-7-7-7-7-7-7-7-7-7-7-7-7-7-7-7-7-7----------------------
D------------------------------------------------------------------------------
A------------------------------------------------------------------------------
E------------------------------------------------------------------------------

X 2 TIMES

Then:

A-D-E-A  X 2 TIMES


CHORUS1:
A-D-E-A X 2 TIMES


INTRO X 2 TIMES


BRIDGE1:
D-A-DD-EE-AA X 2 TIMES

* The chords: DD-EE-AA Mean tha they repeat two times; in the bridge you can 
listen that the last part goes faster than the first, that's why i posted them 
like DD-EE-AA, that means they play two times because these chords are the faster
part in the Bridge...

VERSE 2:
THE SAME AS VERSE 1

CHORUS2:
THE SAME AS CHORUS1

BRIDGE2:
THE SAME AS BRIDGE1

CHORUS3:
THE SAME AS CHORUS1

ENDING CHORUS:
JUST A-D 'TILL ENDING...

Well...that's all the song...hope you enjoy it like i did posting this song....If
you have questions, doubts, commentaries, find a mistake or don't understand 
anything...plz e-mail me: mike_tait_mx@hotmail.com i promise i'll answer you 
quickly...KEEP ROCKIN' IN CHRIST! BECAUSE HE RULES! :) GOD BLESS YOU ALL!! :)


ALSO...HABLO ESPAÑOL TAMBIÉN...PORQUE SOY MEXICANO!!! SI TIENES ALGUNA DUDA O 
COMENTARIO O LO QUE DIJE ANTERIORMENTE PUES HAZLO TAMBIÉN EN ESPAÑOL SI QUIERES 
:)

*ALSO...I SPEAK SPANISH...BECAUSE I'M MEXICAN!!! IF YOU HAVE ANY DOUBT, 
COMMENTARIES OR WHAT I SAID PREVIOUSLY, YOU CAN DO IT IN SPANISH TOO IF YOU WANT 
:)

Comments about this tab

No comments/corrections found. Add your own

Complimentary Christian Ringtones
Dadamobile and CGR have teamed up to bring your favorite Christian artists right to your phone. Sign up today and get 10 complementary ringtones!
Tab Country
Did you know CGR has a sister site w/ country guitar tabs? Well we do! Its called Tab Country. It has a great archive with a lot of country tabs.
Rockin Tabs
Are you looking for a site that has rock guitar tabs? Then Rockintabs.com is the place for you. It is a budding site with many rock guitar tabs. Submit your tab today.
Tab Gallery
Tab Gallery has a compilation of christian, rock, and country tabs all in one place. Come visit us.