Guitar Tabs
song title    band name

Join Us Today!

Don't strum alone...
be a part of the largest online Christian music community. Browse thousands of guitar tabs and chat w/ musicians like yourself.


It's Free!

Sixpence None the Richer - I've Been Waiting

This tab has been rated a 5.00 out of 5 for accuracy. (1 vote)Sorry, but you must be logged in to rate this tab.
Click here to log-in, or you can click here to register.
(Registration is free)

All songs owned by corresponding publishing company. If you make copies of any song on this website, be sure to report your usage to CCLI.
This is my first tab from Sixpence None The Richer's new album, Divine 
Discontent! Hope u like it...
If somebody figures out the fingerpicking at the chorus, please send it to 
cotonet@ig.com.br; coz I couldn't do this. Anyway, enjoy this great 
song...probably the best of this album! As well, send me any doubt, question 
or correction. God bless you all!
Your pal,
	_c0tonet



Intro (x2)
   Gm      Eb      Bb     F        Gm     Eb         Bb  F
e-----------------------------------------------------------|
B--------6-8--6-------------------------6-8--6--------------|
G--7-5-7---------7-5-7----5--------7-5-7---------7---5-7-5--|
D-----------------------------------------------------------|
A-----------------------8-----------------------------------|
E-----------------------------------------------------------|

	Verse 1:	Gm	Eb	Bb	F  (x4)
		 	Eb	C7	F
            	Eb	Cm	F	Gm




   Gm      Eb      Bb     F     
e------------------------------|
B--------6-8--6----------------|
G--7-5-7---------7-5-7----5----|
D------------------------------|
A-----------------------8------|
E------------------------------|



	Verse 2:	Gm	Eb	Bb	F  (x4)
		 	Eb	C7	F
            	Eb	Cm	F	Bb



	Chorus:	Bb	Cm
			F	Bb
			Gm7	Cm
			F	Bb
			Gm7	Cm
			F	Bb

	Intro
   Gm      Eb      Bb     F        Gm     Eb         Bb  F
e-----------------------------------------------------------|
B--------6-8--6-------------------------6-8--6--------------|
G--7-5-7---------7-5-7----5--------7-5-7---------7---5-7-5--|
D-----------------------------------------------------------|
A-----------------------8-----------------------------------|
E-----------------------------------------------------------|


	Verse 3:	Gm	Eb	Bb	F  (x4)
		 	Eb	C7	F
                  Eb	Cm	F	Bb



	Chorus(x2): Bb	Cm
			F	Bb
			Gm7	Cm
			F	Bb
			Gm7	Cm
			F	Bb

Comments about this tab

No comments/corrections found. Add your own

Complimentary Christian Ringtones
Dadamobile and CGR have teamed up to bring your favorite Christian artists right to your phone. Sign up today and get 10 complementary ringtones!
Tab Country
Did you know CGR has a sister site w/ country guitar tabs? Well we do! Its called Tab Country. It has a great archive with a lot of country tabs.
Rockin Tabs
Are you looking for a site that has rock guitar tabs? Then Rockintabs.com is the place for you. It is a budding site with many rock guitar tabs. Submit your tab today.
Tab Gallery
Tab Gallery has a compilation of christian, rock, and country tabs all in one place. Come visit us.