Guitar Tabs
song title    band name

Join Us Today!

Don't strum alone...
be a part of the largest online Christian music community. Browse thousands of guitar tabs and chat w/ musicians like yourself.


It's Free!

Pax217 - SandBoxPraise

This tab has been rated a 0.00 out of 5 for accuracy. (1 vote)Sorry, but you must be logged in to rate this tab.
Click here to log-in, or you can click here to register.
(Registration is free)

All songs owned by corresponding publishing company. If you make copies of any song on this website, be sure to report your usage to CCLI.
Pax217
Album: TwoSevenTeen
Tabbed by: DubbleJ4Jesus@aol.com
     Ok all I know you've been waiting for a correct TAB for this song so here it is.

The song starts with:
e----------------------------------------------------
b----------------------------------------------------
g------6-6--7-7--------------------------------------
d-2-2--6-6--7-7--7-5---------------------------------
a-2-2--4-4--5-5--7-5---------------------------------
e----------------5-3---------------------------------(repeat as needed*)

Then throughout the verses it turns into this:
e---4-4-4-4-4-4-4-4--7-7-7-7-7-7-7-7-----------------
b---5-5-5-5-5-5-5-5--9-9-9-9-9-9-9-9-----------------
g---4-4-4-4-4-4-4-4--9-9-9-9-9-9-9-9-----------------
d----------------------------------------------------
a----------------------------------------------------
e----------------------------------------------------
   ^           Slight P.M.          ^

Then after verse:
e----------------------------------------------------
b----------------------------------------------------
g--9-9-9-9-9-----------------------------------------
d--9-9-9-9-9-----------------------------------------
a--7-7-7-7-7-Keep going variously throughout the song
e----------------------------------------------------
   ^UP STROKE ALL OF THESE

Then you go back to the begining part. You must listen to the song to get the 
timing, and keep the stroke and parts of the song.
Anywayz peace out, and keep rocking the cross!!!
                                
  

a-----------------------

Comments about this tab

No comments/corrections found. Add your own

Complimentary Christian Ringtones
Dadamobile and CGR have teamed up to bring your favorite Christian artists right to your phone. Sign up today and get 10 complementary ringtones!
Tab Country
Did you know CGR has a sister site w/ country guitar tabs? Well we do! Its called Tab Country. It has a great archive with a lot of country tabs.
Rockin Tabs
Are you looking for a site that has rock guitar tabs? Then Rockintabs.com is the place for you. It is a budding site with many rock guitar tabs. Submit your tab today.
Tab Gallery
Tab Gallery has a compilation of christian, rock, and country tabs all in one place. Come visit us.