Guitar Tabs
song title    band name

Join Us Today!

Don't strum alone...
be a part of the largest online Christian music community. Browse thousands of guitar tabs and chat w/ musicians like yourself.


It's Free!

Chapman, Steven Curtis - Walk, The (Abbey Road Version)

This tab has been rated a 5.00 out of 5 for accuracy. (1 vote)Sorry, but you must be logged in to rate this tab.
Click here to log-in, or you can click here to register.
(Registration is free)

All songs owned by corresponding publishing company. If you make copies of any song on this website, be sure to report your usage to CCLI.
My name is Matt Deel I did not tab this.  Brian Lewis , my guitar teacher, did.

/=slide    h=hammer   r=release   .=palm mute    b=bend   *=slide note out

The palm mute may not seem right but listen to the song.  Drop d tuning.

Intro/verse

e----------------------------[---------------------------
b----------10b-7-x-5/7-10b-7-[-----10b-7-5---------------
g----------10b-7-x-5/7-10b-7-[-----10b-7-5---------------
d----------------------------[-------------6r5r3r0-------
a--------0-------------------[---0-----------------0-3h5-
d--x-10*-0-------------------[-x-0-----------------0-----
         .                       .                 .

Repeat but don't play part behind bars.  Instead play:

first ending                                      second ending
e-x-7---------------- play everything three times e---
b-----6b------------- but on the third don't play b-5-
g--------7-5--------- first ending play this.     g-5-
d------------6r5r3-0-                             d---
a--------------------                             a---
d--------------------                             d---

rest of verse
e---------------------------------------------------
b-----------3---6r5---3-------------1-------3-------
g-----3h4-----------------0---1h2---------------0-3-
d-------------0-----0-----------------0---0-------1-
a-0-5---------------------------------------------1-
d-0-5-----5-------------5---3-----3-----2-----2---1-
    .     .             .   .     .     .     .

chorus
D
D/F#
Dm/F
G/D
Bm A
G/D Dm7

Bridge
D
C
G/B
first ending    second ending    third ending
Bb Csus D       Bb C D           Bb Csus Bbsus2

All solos are play in this scale.     ()=the note is a passing note
e-10----------13-(14)-
b-10-----(12)-13------
g-10-(11)-12-(13)-----
d-10------12----------
a-10-(11)-12----------
d---------------------

chords
 D    D/F# Dm/F G/D  Bm    A    C   G/B  Bb  Csus Bbsus2
e-2-  -2-  -1-  -3-  -2-  -0-  -1-  -3-  -1-  -3-  -8-
b-3-  -3-  -4-  -0-  -2-  -2-  -1-  -0-  -3-  -6-  -6-
g-2-  -2-  -2-  -0-  -3-  -2-  -0-  -0-  -3-  -5-  -7-
d-0-  -4-  -3-  -0-  -4-  -2-  -2-  -0-  -3-  -5-  -8-
a-x-  -x-  -x-  -x-  -4-  -0-  -3-  -2-  -1-  -3-  -x-
d-x-  -x-  -x-  -x-  -x-  -x-  -x-  -x-  -x-  -x-  -x-

Hope you like it.  Again, the palm mutes may not sound right but listen to the 
song. SCC rocks.

Comments about this tab

No comments/corrections found. Add your own

Complimentary Christian Ringtones
Dadamobile and CGR have teamed up to bring your favorite Christian artists right to your phone. Sign up today and get 10 complementary ringtones!
Tab Country
Did you know CGR has a sister site w/ country guitar tabs? Well we do! Its called Tab Country. It has a great archive with a lot of country tabs.
Rockin Tabs
Are you looking for a site that has rock guitar tabs? Then Rockintabs.com is the place for you. It is a budding site with many rock guitar tabs. Submit your tab today.
Tab Gallery
Tab Gallery has a compilation of christian, rock, and country tabs all in one place. Come visit us.