Guitar Tabs
song title    band name

Join Us Today!

Don't strum alone...
be a part of the largest online Christian music community. Browse thousands of guitar tabs and chat w/ musicians like yourself.


It's Free!

This tab has not yet been rated for accuracy.Sorry, but you must be logged in to rate this tab.
Click here to log-in, or you can click here to register.
(Registration is free)

All songs owned by corresponding publishing company. If you make copies of any song on this website, be sure to report your usage to CCLI.
Artist:   White Cross
  Song:   Collide
Tabber:   Andrew Ray

tuned to Eb

Verse:
the bass swithches notes but i think the guitar stays on this

       Eb5
eb---|------------------------------------|----------------------
Bb---|------------------------------------|----------------------
Gb---|------------------------------------|----------------------
Db---|-----2------2-------2------2------2-|----------------------
Ab---|---2------2-------2------2------2---|----------------------
Eb---|-0------0-------0------0------0-----|----------------------

Chorus:
      Eb5 f#5    Ab5          Db5          Eb5
eb--|-----------------------|-------------------|----------------
Bb--|-----------------------|-------------------|----------------
Gb--|-----------------------|-------------------|----------------
Db--|--9--12--9--14--12--9--|--7--9--7--7--7\9--|----------------
Ab--|--7--10--7--12--10--7--|--5--7--5--5--5/7--|----------------
Eb--|-----------------------|-------------------|----------------

      Eb5 f#5   Ab5           Eb5   Db5        f#
eb--|-----------------------|------------------------------------
Bb--|-----------------------|------------------------------------
Gb--|-----------------------|--------7---7-----------------------
Db--|--9--12--9--14--12--9--|--2-----7---7-----5~~~~~~~~---------
Ab--|--7--10--7--12--10--7--|--2-----5---5-----------------------
Eb--|-----------------------|--0---------------------------------

this is another way they end the Chorus
      Eb5      Db5            Eb5   Db5        f#
eb--|-----------------------|------------------------------------
Bb--|-----------------------|------------------------------------
Gb--|----------7------------|--------7---7-----------------------
Db--|--2-------7------------|--2-----7---7-----5~~~~~~~~---------
Ab--|--2-------5------------|--2-----5---5-----------------------
Eb--|--0--------------------|--0---------------------------------

i'm not sure about the bridge     i'll tab it out when i figure it out

on the solo     it is Ebm dorian mode   which is
eb---10---12----14--15---17---19-20----22------------------------
Bb---10---12-13-----15---17---19-20----22------------------------
Gb-----11-12----14----16-17---19----21---------------------------
Db---10---12----14----16-17---19----21-22------------------------
Ab---10---12----14--15---17---19----21-22------------------------
Eb---10---12----14--15---17---19--20---22------------------------
   basically    you can use all the notes i just tabbed out to make up your   
   own solo and it will go with the song if you use the ones i just tabbed

i don't know their solo except for the beginning
eb---------17-17--19--------------------15-------17-17--19-------
Bb----------------------17--15---17-15---------------------------
Gb---------------------------------------------------------------
Db---------------------------------------------------------------
Ab---------------------------------------------------------------
Eb---------------------------------------------------------------
   
thats about  it    have fun

Comments about this tab

No comments/corrections found. Add your own

Complimentary Christian Ringtones
Dadamobile and CGR have teamed up to bring your favorite Christian artists right to your phone. Sign up today and get 10 complementary ringtones!
Tab Country
Did you know CGR has a sister site w/ country guitar tabs? Well we do! Its called Tab Country. It has a great archive with a lot of country tabs.
Rockin Tabs
Are you looking for a site that has rock guitar tabs? Then Rockintabs.com is the place for you. It is a budding site with many rock guitar tabs. Submit your tab today.
Tab Gallery
Tab Gallery has a compilation of christian, rock, and country tabs all in one place. Come visit us.