Guitar Tabs
song title    band name

Join Us Today!

Don't strum alone...
be a part of the largest online Christian music community. Browse thousands of guitar tabs and chat w/ musicians like yourself.


It's Free!

DC Talk - Jesus Freak

This tab has been rated a 3.80 out of 5 for accuracy. (5 votes)Sorry, but you must be logged in to rate this tab.
Click here to log-in, or you can click here to register.
(Registration is free)

All songs owned by corresponding publishing company. If you make copies of any song on this website, be sure to report your usage to CCLI.
Title: Jesus Freak (tab)
Artist: DC Talk
Album: Jesus Freak
Copyright: 1996 Forefront Communications

Tabbed by Brian Champness ( chomp@fastlink.com.au)

Acoustic intro:	D	F	G	A	x 2

Electric intro:
Guitar one (electric)= 	E	G	A	B
Guitar two (electric) plays tab	( ) = optional
e|--------------------------------------------------------------------|
B|--------------------------------------------------------------------|
G|--------------------------------------------------------------------|
D|--------------------------------------------------------------------|
A|-(2)-(2)-(2)-(2)-(2)-(2)-(2)--5-5-4-4-2-2-2-------------------------|
E|--0---0---0---0---3---3---3-----------------------------------------|

Chorus:						then hold for four bars
e|-----------------------------------------I---------------------------|
B|-----------------------------------------I---------------------------|
G|-----------------------------------------I---------------------------|
D|---2-2-2-2-5-5-5-5-7-7-7-7-9-9-9-9--x 4--I--2------------------------|
A|---2-2-2-2-5-5-5-5-7-7-7-7-9-9-9-9-------I--2------------------------|
E|---0-0-0-0-3-3-3-3-5-5-5-5-7-7-7-7-------I--0------------------------|

solo:			> = bend			then (hold for two bars)
e|------------------------------------------------I--------------------|
B|-----------------------------12/15-15-15-15-----I--15>16-------------|
G|--7-7-7---------10/13-13-13---------------------I--------------------|
D|--------5-5-5-5-----------------------------x 4-I--------------------|
A|------------------------------------------------I--------------------|
E|------------------------------------------------I--------------------|

---------------------------------
Solo added by: kidfab@place2b.org
---------------------------------

e-----------------|-----------------|---/10-----------|--/16------------|
B--3----3----3----|-----------------|-------9--9--9---|------15--15--15-|
G--5^7--5^7--5^7--|--1---1---1---1--|-----------------|-----------------|
D-----------------|-----------------|-----------------|-----------------|
A-----------------|-----------------|-----------------|-----------------|
E-----------------|-----------------|-----------------|-----------------|


e-----------------|-----------------|---/10-----------|-/16-------------|
B--3----3----3----|-----------------|-------9--9--9---|------15--15--15-|
G--5^7--5^7--5^7--|--1---1---1---1--|-----------------|-----------------|
D-----------------|-----------------|-----------------|-----------------|
A-----------------|-----------------|-----------------|-----------------|
E-----------------|-----------------|-----------------|-----------------|


e-----------------|-----------------|---/10-----------|--/16------------|
B--3----3----3----|-----------------|-------9--9--9---|------15--15--15-|
G--5^7--5^7--5^7--|--1---1---1---1--|-----------------|-----------------|
D-----------------|-----------------|-----------------|-----------------|
A-----------------|-----------------|-----------------|-----------------|
E-----------------|-----------------|-----------------|-----------------|


e-----------------|------------|-/10---------|-/16-16-16-16-16-|-16^----|
B--3----3----3----|------------|-----9--9--9-|--15-15-15-15-15-|--------|
G--5^7--5^7--5^7--|-1--1--1--1-|-------------|-----------------|--------|
D-----------------|------------|-------------|-----------------|--------|
A-----------------|------------|-------------|-----------------|--------|
E-----------------|------------|-------------|-----------------|--------|


There you go. E-mail me at kidfab@place2b.org if you get any use out of
this; I'd love to hear from you. God bless!

Comments about this tab

neal's_beard - 2004-02-23

---------------------------------------------
Correction of the aded solo by: neal's_beard
---------------------------------------------
I like that added solo. It might be 100% right, but I think in the 2nd bar there has to be a second Ab, played on the D-string: 4^6 or 5^6.
That's hard to play, so you can play the whole song in E major (as it is done live). Then the solo becomes a little bit easier, I guess.
The last note in the 4th bar slides down: 15\
No more corrections, I play the rest of the solo the same way.


Add a comment/correction

Complimentary Christian Ringtones
Dadamobile and CGR have teamed up to bring your favorite Christian artists right to your phone. Sign up today and get 10 complementary ringtones!
Tab Country
Did you know CGR has a sister site w/ country guitar tabs? Well we do! Its called Tab Country. It has a great archive with a lot of country tabs.
Rockin Tabs
Are you looking for a site that has rock guitar tabs? Then Rockintabs.com is the place for you. It is a budding site with many rock guitar tabs. Submit your tab today.
Tab Gallery
Tab Gallery has a compilation of christian, rock, and country tabs all in one place. Come visit us.