Guitar Tabs
song title    band name

Join Us Today!

Don't strum alone...
be a part of the largest online Christian music community. Browse thousands of guitar tabs and chat w/ musicians like yourself.


It's Free!

This tab has been rated a 5.00 out of 5 for accuracy. (1 vote)Sorry, but you must be logged in to rate this tab.
Click here to log-in, or you can click here to register.
(Registration is free)

All songs owned by corresponding publishing company. If you make copies of any song on this website, be sure to report your usage to CCLI.
Back and forth - Craig’s Brother


E tuning

Intro
 Gtr 1
-|---5---4---5---7-------------|
-|--7---7---7---7--------------|
-|-7---7---6---6---------------|
-|------------------4-444-4--7-|
-|------------------4-444-4--7-|
-|------------------2-222-2--5-|
                      ***
 Gtr 2
-|-----------------------------|
-|-----------------------------|
-|-----------------------------|
-|------------------4-444-4--7-|
-|------------------4-444-4--7-|
-|------------------2-222-2--5-|
                      ***
Verse 1
 Both
-|--------------------------------------------------------------------------|
-|--------------------------------------------------------------------------|
-|-7-7777-7-777-7-777-7-77-7-777--7-777-7-777-7-----------------------------|
-|-7-7777-7-777-7-777-7-77-7-777--7-777-7-777-7--4-4444-4-444-4-444-4--4----|
-|-5-5555-5-555-5-555-5-55-5-555--5-555-5-555-5--4-4444-4-444-4-444-4--4-12-|
-|---****---***---***---xx---***----***---***----2-2222-2-222-2-222-2--2----|
                                                   ****   ***   *** *    
Verse 2
 Both
-|--------------------------------------------------------|
-|--------------------------------------------------------|
-|------999-----------------------------777---------------|
-|-999--999--4-4444-4-444-4-444-4--999--777--4-444444-4---|
-|-999--777--4-4444-4-444-4-444-4--999--555--4-444444-4-6-|
-|-777-------2-2222-2-222-2-222-2--777-------2-222222-2---|
               ****   ***   ***                ******

Bridge 1
 Gtr 2
-|------------------------------------------------------------|
-|------------------------------------------------------------|
-|---9---7---6--7---9------13----14----14---13---11---13---14-|
-|--7---7---7----7---7---11----11----11---11---11---11---11---|
-|-5---5---5---5---5----9-----9-------------------------------|
-|------------------------------------------------------------|
  
 Gtr 1 (semi P.m, with sum pedal effect)   
-|-------------------------------------------------------------|
-|-------------------------------------------------------------|
-|-----------------------------------11------------------------|
-|-----------------------------------11-12---------------------|
-|------------------------------------9------------------------|
-|-------------------------------------------------------------|
 
 Both (distortion)          
-|----------------------------------------|
-|----------------------------------------|
-|---9---7---6---7---------2--------------|
-|--7---7---7---7-----4--------4--44--4---|
-|-5---5---5---5-----4---4----4---44--4-6-|
-|-----------------\2---2----2----22--2---|
                                  **
Verse 3
 Gtr 1
-|------------------------------------------14------------------------|
-|---------------------------------------------14---------------------|
-|------999-----------------------------777---------------------------|
-|-999--999--4-4444-4-444-4-444-4--999--777-------4-444444-4----2--2--|
-|-999--777--4-4444-4-444-4-444-4--999--555-------4-444444-4-4--2--2--|
-|-777-------2-2222-2-222-2-222-2--777------------2-222222-2----0--0--|
               ****   ***   ***                     ******
 Gtr 2
-|---------------------------------------------14---------------------|
-|------------------------------------------14------------------------|
-|------999-----------------------------777---------------------------|
-|-999--999--4-4444-4-444-4-444-4--999--777-------4-444444-4----14-16-|
-|-999--777--4-4444-4-444-4-444-4--999--555-------4-444444-4-4--------|
-|-777-------2-2222-2-222-2-222-2--777------------2-222222-2----12-14-|
               ****   ***   ***                     ******

Chorus
 Gtr 1
-|------------------------------------------------------------------------------------|
-|------------------------------------------------------------------------------------|
-|------------------------------------------7-7-77-77---------------------------------|
-|-4-4-44-24-6-6-66-66-7-7-77-77-9-9-99-99--7-7-77-77-4-4-44-44--4-4-4-4-3-3--3h4p3---|
-|-4-4-44-44-6-6-66-66-7-7-77-77-9-9-99-99--5-5-55-55-4-4-44-44---4-4-4-4-4-4-------4-|
-|-2-2-22-22-4-4-44-44-5-5-55-55-7-7-77-77------xx----2-2-22-22-----------------------|
       xx        xx        xx        xx                   xx
 Gtr 2
-|------------------------------------------------------------------------------------|
-|------------------------------------------------------------------------------------|
-|------------------------------------------7-7-77-77-------------------------1h2p1---|
-|-4-4-44-44-6-6-66-66-7-7-77-77-9-9-99-99--7-7-77-77-4-4-44-44--4-4-4-4-3-3--------3-|
-|-4-4-44-44-6-6-66-66-7-7-77-77-9-9-99-99--5-5-55-55-4-4-44-44---4-4-4-4-4-4---------|
-|-2-2-22-22-4-4-44-44-5-5-55-55-7-7-77-77------xx----2-2-22-22-----------------------|
       xx        xx        xx        xx                   xx

 Gtr 1
-|----------------------------------------------------------14-|
-|-------------------------------------------------------------|
-|------------------------------------------7-----7--6---------|
-|-4-4-44-44-6-6-66-66-7-7-77-77-9-9-99-99--7-r---7--6---------|
-|-4-4-44-44-6-6-66-66-7-7-77-77-9-9-99-99--5-----5--4---------|
-|-2-2-22-22-4-4-44-44-5-5-55-55-7-7-77-77---------------------|
       xx        xx        xx        xx

 Gtr 2
-|-------------------------------------------------------------|
-|-------------------------------------------------------------|
-|------------------------------------------------------666-6--|
-|-4-4-44-44-6-6-66-66-7-7-77-77-9-9-99-99--------------666-6--|
-|-4-4-44-44-6-6-66-66-7-7-77-77-9-9-99-99--------------444-4--|
-|-2-2-22-22-4-4-44-44-5-5-55-55-7-7-77-77--------------***----|
       xx        xx        xx        xx


Verse 4
 Gtr 1
-|-----------------------------------------|
-|-----------------------------------------|
-|-7-777777-----------7-7777-7-77-7-777777-|
-|-7-777777-6h7-4---6-7-7777-7-77-7-777777-|
-|-5-555555-------5---5-5555-5-55-5-555555-|
-|---******-------------****---xx---******-|

 Gtr 2
-|-----------------------------------------|
-|-----------------------------------------|
-|-7-777777-----------7-7777-7-77-7-777777-|
-|-7-777777-6h7-4---6-7-7777-7-77-7-777777-|
-|-5-555555-------5---5-5555-5-55-5-555555-|
-|---******-------------****---xx---******-|
    
 Gtr 1
-|----------------------------------------------9--------------------------|
-|------10--------9--------12--------10------------------12----------------|
-|------------------------------------------------------------------6-6666-|
-|-1111----111111---111111----111111----111111----111111----111111---------|
-|--9-9-----9-9-9----9-9-9-----9-9-9-----9-9-9-----9-9-9-----9-9-9--4-4444-|
-|--*-*-----*-*-*----*-*-*-----*-*-*-----*-*-*-----*-*-*-----*-*-*---------|

 Gtr 2
-|-------------------------------------------------------------------------|
-|--------------------------9------------------10---------9----------------|
-|------11--------9------------------11-----------------------------6-6666-|
-|-1111----111111---111111----111111----111111----111111----111111---------|
-|--9-9-----9-9-9----9-9-9-----9-9-9-----9-9-9-----9-9-9-----9-9-9--4-4444-|
-|--*-*-----*-*-*----*-*-*-----*-*-*-----*-*-*-----*-*-*-----*-*-*---------|

 Gtr 1
-|---------------------------------------------------------------------------|
-|---------------------------------------------------------------------------|
-|-77-77-77-77-77-77-77-77-77-77-77-77-77-77-777--------9-11--9--11--9--1111-|
-|-77-77-77-77-77-77-77-77-77-77-77-77-77-77-777--4--------------------------|
-|-55-55-55-55-55-55-55-55-55-55-55-55-55-55-555--4-12--7--9--7---9--7---9-9-|
-|----**----**----**----**----**----**----**------2--------------------------|

 Gtr 2
-|---------------------------------------------------------------------------|
-|---------------------------------------------------------------------------|
-|-77----99---1111--1313--1414--1313---77----99---6-----9-11--9--11--9--1111-|
-|--------------------------------------------------12-----------------------|
-|-55----77----9-9--1111--1212--1111---55----77---4-----7--9--7---9--7---9-9-|
-|---------------------------------------------------------------------------|

Break x2
 Gtr 1
-|--------------------|-12---------9---------|
-|-------9-12-10-9-10-|----10-9-10---10-9----|
-|----11--------------|-------------------11-|
-|-11-----------------|----------------------|
-|--------------------|----------------------|
-|-----------------x3-|----------------------| 

 Gtr 2
-|----------------------------------------------------------------|
-|----------------------------------------------------------------|
-|------999-----------------------------777-----------------------|
-|-999--999--4-4444-4-444-4-444-4--999--777--4-4444-4-444-4-444-4-|
-|-999--777--4-4444-4-444-4-444-4--999--555--4-4444-4-444-4-444-4-|
-|-777-------2-2222-2-222-2-222-2--777-------2-2222-2-222-2-222-2-|
               ****   ***   ***                ****   ***   ***
Bridge 2
 Gtr 2
-|-----------------------------------------------------------------|
-|-----------------------------------------------------------------|
-|---------------------------------------------------------------4-|
-|---4-7-----4-6----6---4-----4-6------4-7-----4-7-----4-7-----4---|
-|-5-------5----------5-----5--------4-------4-------4-------4-----|
-|-----------------------------------------------------------------|

-|-----------------------------------------------------------------|
-|-----------------------------------------------------------------|
-|-----------------------------------------------------------------|
-|---4-7-----4-6----6---4-----4-6------4-7-----4-7-----4-7-----4-7-|
-|-5-------5----------5-----5--------4-------4-------4-------4-----|
-|-----------------------------------------------------------------|

Violins - use pedal violin effect
 Gtr 1
-|-------------------------14--16--17--16--19--1717171717171717-|
-|-14--12--15--14--17--14--14--18--14--14--14--1515151515151515-|
-|-14--13--16--14--14--14--14-----------------------------------|
-|--------------------------------------------------------------|
-|--------------------------------------------------------------|
-|--------------------------------------------------------------|

-|-16-16-16-16-16-16-16-16----|
-|---14-14-14-14-12-12-12-12--|
-|----------------------------|
-|----------------------------|
-|----------------------------|
-|----------------------------|

 Gtr 2
-|-----------------------------|
-|-----------------------------|
-|-----------------------------|
-|-------------7-----4---4---3-|
-|-4--6--7--9--5--4----4---4---|
-|-2--4--5--7-----2------------|

Bridge 3
 Gtr 1
-|--------------------------------------------------------------|
-|--------------------------------------------------------------|
-|---------------------------------------------------------6--6-|
-|-------------7--------11----------------666666-66666666--6--6-|
-|-4--6--7--9--5---------9----------------444444-44444444--4--4-|
-|-2--4--5--7-----------------------------******----------------|

 Gtr 2
-|--------------------------------------------------------------|
-|--------------------------------------------------------------|
-|---------------------------------------------------------9--9-|
-|-------------77777777-1111111111111111--666666-66666666--9--9-|
-|-4--6--7--9--55555555--9-9-9-9-9-9-9-9--444444-44444444--7--7-|
-|-2--4--5--7--********--*-*-*-*-*-*-*-*--******----------------|


Chorus
 Both
-|----------------------------------------------------------------------------------|
-|----------------------------------------------------------------------------------|
-|---------------------------------------------7-7-77-77----------------------------|
-|-4-4-44-24--6-6-66-66--7-7-77-77--9-9-99-99--7-7-77-77-4-4-44-44-4-4-6-6-4-4-6-6--|
-|-4-4-44-44--6-6-66-66--7-7-77-77--9-9-99-99--5-5-55-55-4-4-44-44--4-4-4-4-4-4-4-4-|
-|-2-2-22-22--4-4-44-44--5-5-55-55--7-7-77-77------xx----2-2-22-22------------------|
       xx         xx         xx         xx                   xx

-|-----------------------------------------------------------------------|
-|-----------------------------------------------------------------------|
-|---------------------------------------------7-7-77-77------------6----|
-|-4-4-44-24--6-6-66-66--7-7-77-77--9-9-99-99--7-7-77-77-4-4-44-44--6-12-|
-|-4-4-44-44--6-6-66-66--7-7-77-77--9-9-99-99--5-5-55-55-4-4-44-44--4----|
-|-2-2-22-22--4-4-44-44--5-5-55-55--7-7-77-77------xx----2-2-22-22-------|
       xx         xx         xx         xx                   xx


Bridge 4
 Gtr 1
-|-------------------------------|
-|-------------------------------|
-|-3-----------3-----7------9--9-|
-|-3-32--4-----3-32--7-32---9--9-|
-|-1-----4-32--1-----5------7--7-|
-|-------2-----------------------|

 Gtr 2 (strum every note x3)
-|------------------------------------------------------------------|
-|------------------------------------------------------------------|
-|-3---5---6---8--10--11--13--15----11--13--10--11---5---6-------3--|
-|-----------------------------------------------------------6------|
-|-1---3---4---6---8---9--11--13-----9--11---8---9---3---4-------1--|
-|-----------------------------------------------------------4------|

-|-------------------------------------------------------------------|
-|------------------------------------------------------15--17--19---|
-|-3---5---6---8--10--11--13--15----11--13--14--16--18---------------|
-|------------------------------------------------------12--14--16---|
-|-1---3---4---6---8---9--11--13-----9--11--12--14--16---------------|
-|-------------------------------------------------------------------|

Outro  
 Gtr 1
-|--------------------------------------------------------------|
-|--------------------------------------------------------------|
-|---------------------------------------------777-777-444--6---|
-|-4-4-44-24--6-6-66-66--7-7-77-77--9-9-99-99--777-777-444--6-r-|
-|-4-4-44-44--6-6-66-66--7-7-77-77--9-9-99-99--555-555-222--4---|
-|-2-2-22-22--4-4-44-44--5-5-55-55--7-7-77-77-------------------| 
       xx         xx         xx         xx
 Gtr 2
-|--5-5-5-5--7-7-7-7---9--9--9--9---10--10--10--10-------------------|
-|-7-7-7-7--9-9-9-9--10-10-10-10--12--12--12--12---------------------|
-|--------------------------------------------------777-777-444--6---|
-|--------------------------------------------------777-777-444--6-r-|
-|--------------------------------------------------555-555-222--4---|
-|-------------------------------------------------------------------|

shono

Comments about this tab

No comments/corrections found. Add your own

Complimentary Christian Ringtones
Dadamobile and CGR have teamed up to bring your favorite Christian artists right to your phone. Sign up today and get 10 complementary ringtones!
Tab Country
Did you know CGR has a sister site w/ country guitar tabs? Well we do! Its called Tab Country. It has a great archive with a lot of country tabs.
Rockin Tabs
Are you looking for a site that has rock guitar tabs? Then Rockintabs.com is the place for you. It is a budding site with many rock guitar tabs. Submit your tab today.
Tab Gallery
Tab Gallery has a compilation of christian, rock, and country tabs all in one place. Come visit us.