Guitar Tabs
song title    band name

Join Us Today!

Don't strum alone...
be a part of the largest online Christian music community. Browse thousands of guitar tabs and chat w/ musicians like yourself.


It's Free!

This tab has not yet been rated for accuracy.Sorry, but you must be logged in to rate this tab.
Click here to log-in, or you can click here to register.
(Registration is free)

All songs owned by corresponding publishing company. If you make copies of any song on this website, be sure to report your usage to CCLI.
Sorry - Craig’s Brother

Intro
 Gtr 1
-|------------------------------------------------------------------|
-|------------------------------------------------------------------|
-|------------------------------------------------------------------|
-|-77-77-77-77-777-99-99-99-99-9-7-66-66-66-66-666-777-77-7---------|
-|-77-77-77-77-777-99-99-99-99-9-7-66-66-66-66-666-777-77-7-pause---|
-|-55-55-55-55-555-77-77-77-77-7-5-44-44-44-44-444-555-55-5---------|

 Gtr 1
-|-----------------------------------------------------------------------|
-|-----------------------------------------------------------------------|
-|------------------111111-9-7-xx-7-9--99-99-99-99-999----------(77------|
-|-77-77-77-77-777-------------------------------------77-77-77-------7)-|
-|-77-77-77-77-777---9-9-9-7-5-xx-5/7--77-77-77-77-777-77-77-77-----9----|
-|-55-55-55-55-555-------------------------------------55-55-55----------|

 Gtr 2
-|------------------------------------------------------------------|
-|------------------------------------------------------------------|
-|------------------------------------------------------------------|
-|-77-77-77-77-777-99-99-99-99-9-7-66-66-66-66-666-777--9-11-(7777)-|
-|-77-77-77-77-777-99-99-99-99-9-7-66-66-66-66-666------------------|
-|-55-55-55-55-555-77-77-77-77-7-5-44-44-44-44-444-555/-7/-9--------|
 
 Gtr 2
-|------------------------------------------------------------------------|
-|------------------------------------------------------------------------|
-|-------------------------------------99-99-99-99-999--------------------|
-|-77-77-77-77-777-121212-11-9----9-7------------------77-77-77-77-(7777)-|
-|-77-77-77-77-777-------------xx-9-7--77-77-77-77-777-77-77-77-77--------|
-|-55-55-55-55-555-101010--9-7-xx-7\5------------------55-55-55-55--------|
                                                                            
Verse
 Gtr 1
-|--------------------------------------------------------------------------|
-|--------------------------------------------------------------------------|
-|-------------1111-77-9-------------------------------1111-77-9------------|
-|-7-----99-99-----------12--777----777----7-----99-99-----------12--7------|
-|-7-12--99-----9-9-55-7-----777-xx-777----7-12--99-----9-9-55-7-----7-6-xx-|
-|-5-----77-77---------------555-xx-555-x\-5-----77-77---------------5---xx-|
                                                                        
 Gtr 2
-|-----------------------------------------------------------------------------|
-|-----------------------------------------------------------------------------|
-|----------1111------------------------------------77-1414-1111-13------------|
-|-7-----99-1111-99-77-6-----777----777----7-----99-----------------12--7------|
-|-7-12--99--9-9-99-77-6-12--777-xx-777----7-12--99-55-1212--9-9-11-----7-6-xx-|
-|-5-----77------77-55-4-----555-xx-555-x\-5-----77---------------------5---xx-|
 
Pre Chorus    
 Gtr 1
-|---------------------------------------------------------------------|
-|---------------------------------------------------------------------|
-|------------99-77-66-44-9---------------------44-1111-99-77-9--------|
-|-6-7-6-4-----------------12-7------6-7-6-4-------------------12--7---|
-|-6-7-6-4-12-77-55-44-22/7---7-6-xx-6-7-6-4-8--22--9-9-77-55-7----7-8-|
-|-4-5-4-2--------------------5---xx-4-5-4-2-----------------------5---|

 Gtr 2
-|----------------------------------------------------------------------------|
-|----------------------------------------------------------------------------|
-|-----------------------------------------------66-1111-99-77-66-44-9--------|
-|-6-7-6-4----9----7-9-7-6----7------6-7-6-44-44----------------------12--7---|
-|-6-7-6-4-12-9-10-7-9-7-6-12-7-6-xx-6-7-6-44----44--9-9-77-55-44-22-7----7-8-|
-|-4-5-4-2----7----5-7-5-4----5---xx-4-5-4-22-22--------------------------5---|

Chorus
-|-----------------------------------------------------------------------------|
-|-----------------------------------------------------------------------------|
-|-----------------99------------------------------------------99--------------|
-|-3----5----7-----99--3----5----77-777-77-----3----5----7-----99--3----5------|
-|-3-6--5-6--7-10--77--3-6--5-6--77-777-77-----3-6--5-6--7-10--77--3-6--5-6----|
-|-1----3----5---------1----3----55-555-55--x\-1----3----5---------1----3---x\-|
                                 ** *** **

Verse 2
 Gtr 1
-|---------------------------------------------------------------------------|
-|---------------------------------------------------------------------------|
-|-------------1111-77-9--------------------------------1111-77-9------------|
-|-7-----99-99-----------12--777----777-----7-----99-99-----------12--7------|
-|-7-12--99-----9-9-55-7-----777-xx-777-----7-12--99-----9-9-55-7-----7-6-xx-|
-|-5-----77-77---------------555-xx-555-----5-----77-77---------------5---xx-|

 Gtr 2
-|-----------------------------------------------------------------------------|
-|-----------------------------------------------------------------------------|
-|----------1111-------------------------------------77-1414-1111-13-----------|
-|-7-----99-1111-99-77-6-----777----777-----7-----99----------------12--7------|
-|-7-12--99--9-9-99-77-6-12--777-xx-777-----7-12--99-55-1212--9-9-11----7-6-xx-|
-|-5-----77------77-55-4-----555-xx-555-----5-----77--------------------5---xx-|


Pre Chorus
 Gtr 1
-|-1-------------------------------------------------------------------|
-|---------------------------------------------------------------------|
-|-------------------99-77-66-44-99-99-99-99---------------------------|
-|-6-7-6-44-44-44-44--------------------------7------6-7-6-44-44-44-44-|
-|-6-7-6-44-44-44-44-77-55-44-22-77-77-77-77--7-6-xx-6-7-6-44-44-44-44-|
-|-4-5-4-22-22-22-22--------------------------5---xx-4-5-4-22-22-22-22-|

-|---------------------------------------|
-|---------------------------------------|
-|-44-1111-99-77-99-1111-1313-14-16-14---|
-|-------------------------------------8-|
-|-22--9-9-77-55/77--9-9-1111-12-14-12---|
-|---------------------------------------|

 Gtr 2
-|---------------------------------------------------------------------|
-|---------------------------------------------------------------------|
-|---------------------------------------------------------------------|
-|-6-7-6-44-44-44-44--9----7-9-7-66-66-66-66--7------6-7-6-44-44-44-44-|
-|-6-7-6-44-44-44-44--9-10-7-9-7-66-66-66-66--7-6-xx-6-7-6-44-44-44-44-|
-|-4-5-4-22-22-22-22--7----5-7-5-44-44-44-44--5---xx-4-5-4-22-22-22-22-|

-|-----------------------|
-|-----------------------|
-|-99-77-66-44-9---------|
-|---------------12--7---|
-|-77-55-44-22-7-----7-8-|
-|-------------------5---|

Chorus

Bridge 1 (P.m)
 Gtr 1
-|---------------------------------------------------------------------------|
-|---------------------------------------------------------------------------|
-|---------------------------------------------------------------------------|
-|-111111-------------------------------121212-------------------------------|
-|--------121212-------------------1212--------121212-------------------1212-|
-|---------------121212-999-121212--------------------121212-999-121212------|

-|---------------------------------------------------------------------|
-|---------------------------------------------------------------------|
-|---------------------------------------------------------------------|
-|-121212--------------------------1212-111111----------------77-777-7-|
-|--------121212------------121212-------------121212---------77-777-7-|
-|---------------121212-999---------------------------121212--55-555-5-|

 Gtr 2
-|---------------------------------------------------------------------------|
-|---------------------------------------------------------------------------|
-|---------------111111-----------------------1111--999----------------------|
-|-7-------9------------121212-999--------999-----------111111-999--77-777-7-|
-|-7-r-----9-----------------------111111---------------------------77-777-7-|
-|-5-------7--------------------------------------------------------55-555-5-|

Intro
 Gtr 1
-|------------------------------------------------------------------|
-|------------------------------------------------------------------|
-|------------------------------------------------------------------|
-|-77-77-77-77-777-99-99-99-99-9-7-66-66-66-66-666-777-77-7---------|
-|-77-77-77-77-777-99-99-99-99-9-7-66-66-66-66-666-777-77-7-pause---|
-|-55-55-55-55-555-77-77-77-77-7-5-44-44-44-44-444-555-55-5---------|

 Gtr 1
-|--------------------------------------------------------------|
-|--------------------------------------------------------------|
-|------------------111111-9-7-xx-7-9--99-99-99-99-999----------|
-|-77-77-77-77-777-------------------------------------77-77-77-|
-|-77-77-77-77-777---9-9-9-7-5-xx-5/7--77-77-77-77-777-77-77-77-|
-|-55-55-55-55-555-------------------------------------55-55-55-|

 Gtr 2
-|------------------------------------------------------------------|
-|------------------------------------------------------------------|
-|------------------------------------------------------------------|
-|-77-77-77-77-777-99-99-99-99-9-7-66-66-66-66-666-777--9-11-(7777)-|
-|-77-77-77-77-777-99-99-99-99-9-7-66-66-66-66-666------------------|
-|-55-55-55-55-555-77-77-77-77-7-5-44-44-44-44-444-555/-7/-9--------|

 Gtr 2
-|-----------------------------------------------------------------|
-|-----------------------------------------------------------------|
-|-------------------------------------99-99-99-99-999-------------|
-|-77-77-77-77-777-121212-11-9----9-7------------------77-77-77-77-|
-|-77-77-77-77-777-------------xx-9-7--77-77-77-77-777-77-77-77-77-|
-|-55-55-55-55-555-101010--9-7-xx-7\5------------------55-55-55-55-|


Bridge 2
 Gtr 1
-|-------------------------------------------------------------------------|
-|-------------------------------------------------------------------------|
-|-7--14----11----14-1313-9----1414-1818-1616-1414--14---11----14-1313-9---|
-|------12-----8------------8-------------------------12----8------------8-|
-|-5//12-----9----12-1111-7----1212-1616-1414-1212--12----9----12-1111-7---|
-|-------------------------------------------------------------------------|

-|--------------------------------------------------|
-|--------------------------------------------------|
-|-14----11-----14-1313-9----1414-1818-1616--xxx-14-|
-|---12-----8-------------8-------------------------|
-|-12-----9-----12-1111-7----1212-1616-1414--xxx-12-|
-|--------------------------------------------------|

 Gtr 2
-|----------------------------------------------------|
-|----------------------------------------------------|
-|-6----77-66-7----99-77--99-1313-1111-99--6----99-77-|
-|---4----------4----------------------------4--------|
-|-4----55-44-5----77-55--77-1111--9-9-77--4----77-55-|
-|----------------------------------------------------|

-|------------------------------------------------------------|
-|------------------------------------------------------------|
-|-6----77-66-7----99-77--99-1313-1111-99---------------------|
-|---4----------4--------------------------77-77-77-777-7-7-7-|
-|-4----55-44-5----77-55--77-1111--9-9-77--77-77-77-777-7-7-7-|
-|-----------------------------------------55-55-55-555-5-5-5-|
                                           ** ** ** ***   *

Outro
 Gtr 1
-|-------------------------------------------------------|
-|-------------------------------------------------------|
-|-14----1616-18----1919-1818-13----1414-16----1818-1616-|
-|----6----------8---------------6----------8------------|
-|-12----1414-16----1717-1616-11----1212-14----1616-1414-|
-|-------------------------------------------------------|

-|-------------------------------------------------|
-|-------------------------------------------------|
-|-14----1616-18----1919-1818--17----19----18------|
-|----6----------8----------------4-----4-----r----|
-|-12----1414-16----1717-1616--15----17----16----\-|
-|-----------------------------------------------\-|

 Gtr 2
-|----------------------------------------------------------|
-|----------------------------------------------------------|
-|-----------------------------------------10---------------|
-|-7-----9-----7-6-----7-------7-----9-----10-4--5----7-----|
-|-7-12--9-10--7-6-12--7-10----7-12--9-12---8----5-4--7-r-\-|
-|-5-----7----\5-4-----5----x\-5-----7-----------3----5---\-|

shono

Comments about this tab

No comments/corrections found. Add your own

Complimentary Christian Ringtones
Dadamobile and CGR have teamed up to bring your favorite Christian artists right to your phone. Sign up today and get 10 complementary ringtones!
Tab Country
Did you know CGR has a sister site w/ country guitar tabs? Well we do! Its called Tab Country. It has a great archive with a lot of country tabs.
Rockin Tabs
Are you looking for a site that has rock guitar tabs? Then Rockintabs.com is the place for you. It is a budding site with many rock guitar tabs. Submit your tab today.
Tab Gallery
Tab Gallery has a compilation of christian, rock, and country tabs all in one place. Come visit us.