Guitar Tabs
song title    band name

Join Us Today!

Don't strum alone...
be a part of the largest online Christian music community. Browse thousands of guitar tabs and chat w/ musicians like yourself.


It's Free!

This tab has not yet been rated for accuracy.Sorry, but you must be logged in to rate this tab.
Click here to log-in, or you can click here to register.
(Registration is free)

All songs owned by corresponding publishing company. If you make copies of any song on this website, be sure to report your usage to CCLI.
Potential - Craig's Brother

D# tuning


Intro
 Gtr 2
-|------------------------------------------------------------------------------|
-|------------------------------------------------------------------------------|
-|-5----5------------------------5---------5----5------------------------5------|
-|-5-8--5-8--7----5----3----5----5-8--5----5-8--5-8--7----5----3----5----5-8--5-|
-|-3----2----7-8--5-8--3-8--5-8--3----5-8--3----2----7-8--5-8--3-8--5-8--3----5-|
-|-*----*----5----3----1----3----*----3----*----*----5----3----1----3----*----3-|
             *    *    *    *         *              *    *    *    *
 Gtr 1
-|------------------------------------------------------------------------------|
-|------------------------------------------------------------------------------|
-|------------------------------------------------------------------------------|
-|----------------------------------------------------------------------------5-|
-|----------------------------------------------------------------------------5-|
-|----------------------------------------------------------------------------3-|

Verse 1
 Gtr 1
-|--------------------------------------------------------------------|
-|--------------------------------------------------------------------|
-|-5--55--555--55-------------------------------------------1717-1616-|
-|-5-x55-x555-x55---7--77--777--77---3--33--333--33---5--55-----------|
-|-3-x33-x333-x33--x7-x77-x777-x77--x3-x33-x333-x33--x5-x55-1515-1414-|
-|-----------------x5-x55-x555-x55--x1-x11-x111-x11--x3-x33-----------|

 Gtr 2
-|--------------------------------------------------------------------|
-|--------------------------------------------------------------------|
-|-5--55--555--55--------------------------------------------9-9--7-7-|
-|-5-x55-x555-x55---7--77--777--77---3--33--333--33---5--55-----------|
-|-3-x33-x333-x33--x7-x77-x777-x77--x3-x33-x333-x33--x5-x55--7-7--5-5-|
-|-----------------x5-x55-x555-x55--x1-x11-x111-x11--x3-x33-----------|

 Gtr 1
-|----------------------------------------------------------------------------5-7-|
-|----------------------------------------------------------------------5-6-8-----|
-|-5--55--555--55------------------------------------------------00-4-5-----------|
-|-5-x55-x555-x55---7--77--777--77---3--33--333--33---5-555555-5------------------|
-|-3-x33-x333-x33--x7-x77-x777-x77--x3-x33-x333-x33--x5-555555-5------------------|
-|-----------------x5-x55-x555-x55--x1-x11-x111-x11--x3-333333-3------------------|
                                                        ******     half p.m
 Gtr 2
-|--------------------------------------------------------------------------------|
-|--------------------------------------------------------------------------------|
-|-5--55--555--55-----------------------------------------------------------------|
-|-5-x55-x555-x55---7--77--777--77---3--33--333--33---5-555555-5------------------|
-|-3-x33-x333-x33--x7-x77-x777-x77--x3-x33-x333-x33--x5-555555-5------------------|
-|-----------------x5-x55-x555-x55--x1-x11-x111-x11--x3-333333-3------------------|
                                                        ******


Chorus 1
 Gtr 1
-|-------------------------------------|
-|-------------------------------------|
-|-------------------------------17-16-|
-|-7-777777-5-555555-3-33333333--------|
-|-7-777777-5-555555-3-33333333--15-14-|
-|-5-555555-3-333333-1-11111111--------|
     ******   ******   ********

 Gtr 2
-|-------------------------------------|
-|-------------------------------------|
-|-------------------------------9--7--|
-|-7-777777-5-555555-3-33333333--------|
-|-7-777777-5-555555-3-33333333--7--5--|
-|-5-555555-3-333333-1-11111111--------|
     ******   ******   ********
 Gtr 1
-|-------------------------------------|
-|-------------------------------------|
-|-------------------------------------|
-|-7-777777-5-555555-3-33333333-333333-|
-|-7-777777-5-555555-3-33333333-333333-|
-|-5-555555-3-333333-1-11111111-111111-|
     ******   ******   ********
 Gtr 2
-|--------------------------------3----|
-|----------------------------3h5---5b-|
-|-------------------------------------|
-|-7-777777-5-555555-3-333333----------|
-|-7-777777-5-555555-3-333333----------|
-|-5-555555-3-333333-1-111111----------|
     ******   ******   ******
 Gtr 1
-|----------------------------------------------------------------|
-|----------------------------------------------------------------|
-|----------------------12---------------------5--55--5-----------|
-|-7----5----3-----7------r--3-3-----3----5----5-x55-x5--55555555-|
-|-7-8--5-8--3-12--7-r--10---3-3-12--3-6--5----3-x33-x3--55555555-|
-|-5----3----1-----5---------1-1-----1----3--------------33333333-|
                               *                         ********
 Gtr 2
-|-------------------------------------------------------------------|
-|-------------------------------------------------------------------|
-|----------------------12---------------------5--55--5--000-4-5-7-0-|
-|-7----5----3-----7------r--3-3-----3----5----5-x55-x5--------------|
-|-7-8--5-8--3-12--7-r--10---3-3-12--3-6--5-t--3-x33-x3--------------|
-|-5----3----1-----5---------1-1-----1----3--------------------------|
                               *
Verse 2
 Gtr 1
-|-------------------------------------------------------------------------|
-|----------------------------------------------------------/5-3---6-5-3---|
-|-5--55--555--55------------------------------------------------5-------5-|
-|-5-x55-x555-x55---7--77--777--77---3--33--333--33---5--55----------------|
-|-3-x33-x333-x33--x7-x77-x777-x77--x3-x33-x333-x33--x5-x55----------------|
-|-----------------x5-x55-x555-x55--x1-x11-x111-x11--x3-x33----------------|

 Gtr 2
-|-------------------------------------------------------------------------|
-|-------------------------------------------------------------------------|
-|-5--55--555--55-------------------------------------------/5-4---7-5-4---|
-|-5-x55-x555-x55---7--77--777--77---3--33--333--33---5--55------5-------5-|
-|-3-x33-x333-x33--x7-x77-x777-x77--x3-x33-x333-x33--x5-x55----------------|
-|-----------------x5-x55-x555-x55--x1-x11-x111-x11--x3-x33----------------|
 Both
-|------------------------------------------------------------------------|
-|------------------------------------------------------------------------|
-|-5--55--555--55---------------------------------------------------------|
-|-5-x55-x555-x55---7--77--777--77---3--33--333--33---5-555555-5-555-5--3-|
-|-3-x33-x333-x33--x7-x77-x777-x77--x3-x33-x333-x33--x5-555555-5-555-5--3-|
-|-----------------x5-x55-x555-x55--x1-x11-x111-x11--x3-333333-3-333-3--1-|
                                                        ******   ***
Bridge
 Gtr 1
-|---------------------------------------------------------------------------|
-|---------------------------------------------------------------------------|
-|-----------------------------99-9-11-111111111111--------5-555555----------|
-|-333333-555555-7-777777-1010-99-9-11-111111111111-555555-5-555555-555-5555-|
-|-333333-555555-7-777777-1010-77-7--9--9-9-9-9-9-9-555555-3-333333-555-5555-|
-|-111111-333333-5-555555--8-8----------*-*-*-*-*-*-333333---******-333-3333-|
   ****** ******   ******                           ******          *** ****

 Gtr 2
-|---------------------------------------------------------------------------|
-|---------------------------------------------------------------------------|
-|-----------------------------99-9-11-111111111111--------5-555555----------|
-|------------------------1010-99-9-11-111111111111-555555-5-555555-555-5555-|
-|------------------------1010-77-7--9--9-9-9-9-9-9-555555-3-333333-555-5555-|
-|-------------------------8-8----------*-*-*-*-*-*-333333---******-333-3333-|
                                                    ******          *** ****
 Both Gtr’s
-|---------------------------------------------------|
-|---------------------------------------------------|
-|---------------------------------99-9-11-----------|
-|-3-333333-5-555555-7-777777-1010-99-9-11-12-5-5----|
-|-3-333333-5-555555-7-777777-1010-77-7--9----5-5-12-|
-|-1-111111-3-333333-5-555555--8-8-------*----3-3----| 
     ******   ******   ******                   *

Solo
 Gtr 1
-|----------------------------------------------------------7-7/8--------|
-|-----8-----8/10-----8--------------------------------8-10-------10-8-8-|
-|-7-9---7h9------7-9---9-7---------------------7-9-10-------------------|
-|--------------------------10-9-10-9----7-9-10--------------------------|
-|------------------------------------10---------------------------------|
-|-----------------------------------------------------------------------|

-|-------------------------------------------------------------------------|
-|-----8-------------------------------------------------------------------|
-|-7-9------7-9-7----7-10-9-7-9-7----------------------------------------5-|
-|-------10-------10--------------10---------------------------------5-7---|
-|------------------------------------333-/7777------------------5-7-------|
-|----------------------------------------------10-8-7-8-7-3-5-8-----------|
                                                                 ????????
-|--------88--------88--10/12-8-------------------|
-|-8h10p8----8h10p8-------------------------------|
-|------------------------------------------------|
-|------------------------------------------------|
-|------------------------------------------------|
-|------------------------------------------------|
                                 ?????????
 Gtr 2
-|---------------------------------------------------------|
-|---------------------------------------------------------|
-|-5-----------------------5-------------------------------|
-|-5-12--7-----3-----5-----5-12--7-----3-----55-555-555-55-|
-|-3-----7-12--3-12--5-12--3-----7-12--3-12--55-555-555-55-|
-|-------5-----1-----3-----------5-----1-----33-333-333-33-|


Chorus 2
 Gtr 1
-|------------------------------------------|
-|------------------------------------------|
-|-------------------------------9-7-55-44--|
-|-7-777777-5-555555-3-33333333-------------|
-|-7-777777-5-555555-3-33333333-------------|
-|-5-555555-3-333333-1-11111111-------------|
     ******   ******   ********

 Gtr 2
-|------------------------------------------|
-|------------------------------------------|
-|------------------------------------------|
-|-7-777777-5-555555-3-33333333-------------|
-|-7-777777-5-555555-3-33333333-/7-5-3-22h3-|
-|-5-555555-3-333333-1-11111111-------------|
     ******   ******   ********

 Gtr 1
-|-------------------------------------|
-|-------------------------------------|
-|-------------------------------------|
-|-7-77777775-555555-3-33333333-333333-|
-|-7-777777-5-555555-3-33333333-333333-|
-|-5-555555-3-333333-1-11111111-111111-|
     ******   ******   ********

 Gtr 2
-|--------------------------------3----|
-|----------------------------3h5---5b-|
-|-------------------------------------|
-|-7-777777-5-555555-3-333333----------|
-|-7-777777-5-555555-3-333333----------|
-|-5-555555-3-333333-1-111111----------|
     ******   ******   ******

 Gtr 1
-|-----------------------------------------------------------------------|
-|-----------------------------------------------------------------------|
-|----------------17-16-1616-16-14-1414-14-12--14---16-------------------|
-|-7----5----3------------------------------------r----r--3-3-----3----5-|
-|-7-8--5-8--3-6--15\14-1414-14\12-1212-12\10--12---14----3-3-12--3-6--5-|
-|-5----3----1--------------------------------------------1-1-----1----3-|
                                                            *
 Gtr 2
-|-----------------------------------------------------------------------|
-|-----------------------------------------------------------------------|
-|-----------------9-7--77--7-5--55--4-----------------------------------|
-|-7----5----3----------------------------------7----5----3-3-----3----5-|
-|-7-8--5-8--3-6---7\5--55--5\3--33\-2----------7-r--5-r--3-3-12--3-6--5-|
-|-5----3----1----------------------------------5----3----1-1-----1----3-|
                                                            *
 
Outro             
 Gtr 1
-|--------------------|
-|--------------------|
-|-5------------------|
-|-5-r--7----3----5---|
-|-3----7-r--3-r--5-r-|
-|------5----1----3---|

-|---------------------------------------------------------|
-|---------------------------------------------------------|
-|-5----9-7-7-5--5----9-7-7-5--5---10-9-9-7--7---7-5-5-4-5-|
-|-5-r------------r-------------r-------------r------------|
-|-3---/7\5-5\3--3---/7\5-5\3--3---/8\7-7\5--5---5\3-3\2/3-|
-|---------------------------------------------------------|

-|----------------------------------------------------------------------------|
-|----------------------------------------------------------------------------|
-|-5---9-7-7-5--5----9-7-7-5--5---10-9-9-7--7----4----5--5----9-7-7-4-5--5-5--|
-|--r------------r-------------r-------------r----r-------r-----------------r-|
-|-3--/7\5-5\3--3---/7\5-5\3--3---/8\7-7\5--5----2---/3--3---/7\5-5\2/3--3-3--|
-|----------------------------------------------------------------------------|

-|-----------------------------|
-|-----------------------------|
-|-5--10-9-9-7--5-5-7-7-5--5---|
-|---------------------------r-|
-|-3--/8\7-7\5--3-3/5-5\3--3---|
-|-----------------------------|

 Gtr 2
-|-----------------x4-|-----|
-|--------------------|-----|
-|-5------------------|-5---|
-|-5-r--7----3----5---|-5-r-|
-|-3----7-r--3-r--5-r-|-3---|
-|------5---\1---/3---|-----|

shono :)

Comments about this tab

No comments/corrections found. Add your own

Complimentary Christian Ringtones
Dadamobile and CGR have teamed up to bring your favorite Christian artists right to your phone. Sign up today and get 10 complementary ringtones!
Tab Country
Did you know CGR has a sister site w/ country guitar tabs? Well we do! Its called Tab Country. It has a great archive with a lot of country tabs.
Rockin Tabs
Are you looking for a site that has rock guitar tabs? Then Rockintabs.com is the place for you. It is a budding site with many rock guitar tabs. Submit your tab today.
Tab Gallery
Tab Gallery has a compilation of christian, rock, and country tabs all in one place. Come visit us.