Guitar Tabs
song title    band name

Join Us Today!

Don't strum alone...
be a part of the largest online Christian music community. Browse thousands of guitar tabs and chat w/ musicians like yourself.


It's Free!

This tab has not yet been rated for accuracy.Sorry, but you must be logged in to rate this tab.
Click here to log-in, or you can click here to register.
(Registration is free)

All songs owned by corresponding publishing company. If you make copies of any song on this website, be sure to report your usage to CCLI.
Insult to Injury - Craig's Brother

D# Tuning


Intro
 Gtr 1
-|---------------------------------------------------------------------|
-|---------------------------------------------------------------------|
-|-77-7-7-999-101010--77-7-7-999-101010--10101010-9999-7777-101010-999-|
-|-77-7-7-------------77-7-7-------------------------------------------|
-|-55-5-5-777--8-8-8--55-5-5-777--8-8-8---8-8-8-8-7777-5555--8-8-8-777-|
-|---------------------------------------------------------------------|

-|-----------------------------------------------------------------------|
-|-----------------------------------------------------------------------|
-|-77-7-7-999-101010--1414-777-999-101010--10101010-9999-7777-101010-999-|
-|-77-7-7----------------------------------------------------------------|
-|-55-5-5-777--8-8-8--1212-555-777--8-8-8---8-8-8-8-7777-5555--8-8-8-777-|
-|-----------------------------------------------------------------------|

-|-----------------------------------------------------------|
-|-----------------------------------------------------------|
-|-9999-10101010-12121212-99-1010-----------------5--------7-|
-|---------------------------------77-8-7-5----77---8-7-5--7-|
-|-7777--8-8-8-8-10101010-77--8-8--55-------8--55----------5-|
-|-----------------------------------------------------------|

 Gtr 2
-|----------------------------------------------------------------x2-|
-|-------------------------------------------------------------------|
-|-77-7-7-777-7-7--5-77-7-7-777-7-7----------------------------------|
-|-77-7-7-777-7-7--5-77-7-7-777-7-7--888-8-8-888-8-8-888-8-8-888-8-8-|
-|-55-5-5-555-5-5--3/55-5-5-555-5-5--888-8-8-888-8-8-888-8-8-888-8-8-|
-|-----------------------------------666-6-6-666-6-6-666-6-6-666-6-6-|

-|--------------------------------------------------------------------------------|
-|--------------------------------------------------------------------------------|
-|---------------------------------------------------------------------5--------7-|
-|-101010-10-10-101010-10-10-101010-10-10-101010-10-10--77-8-7-5----77---8-7-5--7-|
-|-101010-10-10-101010-10-10-101010-10-10-101010-10-10--55-------8--55----------5-|
-|--8-8-8--8--8--8-8-8--8--8--8-8-8--8--8--8-8-8--8--8----------------------------|

Verse 1
 Gtr 1
-|---------------------------------------------------------------------|
-|----------------------------------------------------10101010-1111-10-|
-|---------------------------------------666-6-999-12--9-9-9-9--9-9--9-|
-|-8-----10-----3-----8----88-7-----77-7-------------------------------|
-|-8-12--10-12--3-12--8-8--88-7-12--77-4-444-4-777-10------------------|
-|-6------8-----1-----6----55-4-----55-5-------------------------------|

 Gtr 2
-|---------------------------------------------------------------------|
-|---------------------------------------------------------------------|
-|---------------------------------------666-6-999-6-------------------|
-|-8-----10-----3-----8----88-7-----77-7--------------7-7--------------|
-|-8-12--10-12--3-12--8-8--88-7-12--77-4-444-4-777-4--7-7--------------|
-|-6------8-----1-----6----55-4-----55-5--------------5-5--------------|
                                                        *

Verse 2
 Gtr 1
-|--------x4-|--------x2-|-------------------------------------------------------------|
-|-----------|-----------|-------------------------------------------------------------|
-|-----------|-----------|-14-12-10-9--7----9------------------------------------------|
-|-000-3-2-3-|-----2-0-2-|---------------24----7-7-777777-7-777777-7-7-7--5-7-8-10-8-7-|
-|-----------|-333-------|-12-10--8-7--5----7--7-7-777777-7-777777-7-7-7--5-7-8-10-8-7-|
-|-----------|-----------|---------------------5-5-555555-5-555555-5-5-5--3-5-6--8-6-5-|
                                               *   ******   ******   *    * * *  * * *
 Gtr 2
-|--------------------------------------------------------------------------------|
-|--------------------------------------------------------------------------------|
-|-7------------------------------------------------------------------------------|
-|-7-12--8-----10-----3-----8----88-7-----7-7-777777-7-777777-7-7-7--5-7-8-10-8-7-|
-|-5-----8-12--10-12--3-12--8-8--88-7-12--7-7-777777-7-777777-7-7-7--5-7-8-10-8-7-|
-|-------6------8-----1-----6----55-4-----5-5-555555-5-555555-5-5-5--3-5-6--8-6-5-|
                                          *   ******   ******   *    * * *  * * *

Verse 3
 Gtr 1
-|-------------------------------------------------|
-|-------------------------------------------------|
-|-----------10-99-7-----------------------14---12-|
-|-8----10-----------77--8----10----7--------------|
-|-8-6--10-6--8-77-5-77--8-6--10-6--7-6--xx12-xx10-|
-|-6-----8-----------55--6-----8----5--------------|

 Gtr 2
-|-------------------------------------------------|
-|-------------------------------------------------|
-|-----------10-99-7------------------------7----5-|
-|-8----10---10-99-7-77--8----10----7-------7----5-|
-|-8-6--10-6--8-77-5-77--8-6--10-6--7-6--55-5-33-3-|
-|-6-----8-----------55--6-----8----5----**---**---|

 Gtr 1
-|----------------------------------------------------------------------------|
-|----------------------------------------------------------------------------|
-|------------10--9--7--5-------------------------------15--14--12--7----6----|
-|-8---10-----10--9--7--5--8----10-----33--33--8----88----4---3---2---6-------|
-|-8---10------8--7--5--3--8-6--10-6---33--33--8-8--88--13--12--10--5----4----|
-|-6----8--x\--------------6-----8-----11--11--6----55---------------------x\-|

 Gtr 2
-|-----------------------------------------------------------------|
-|-----------------------------------------------------------------|
-|------------10--9--7--5------------------------------------------|
-|-8---10-----10--9--7--5--8----10-----33--33--8----88--5-----7----|
-|-8---10------8--7--5--3--8-6--10-6---33--33--8-8--88--5-12--7-12-|
-|-6----8--x\--------------6-----8-----11--11--6----55--3-----5----|

 Both Gtr's
-|-------------------------------------------|
-|-------------------------------------------|
-|-77-7-7-777-7-7--5-77-7-7-777-7-7--------7-|
-|-77-7-7-777-7-7--5-77-7-7-777-7-7--8-----7-|
-|-55-5-5-555-5-5--3/55-5-5-555-5-5--8-32--5-|
-|-----------------------------------6-------|

Verse 4
 Gtr 1
-|--------x4-|--------x2-|----------------------------------------------------|
-|-----------|-----------|----------------------------------------------------|
-|-----------|-----------|-14-12-10--9--7----3----6--7--9--9--7-77-7-77-7-7-7-|
-|-000-3-2-3-|-222-5-3-5-|----------------12---12-------------7-77-7-77-7-7-7-|
-|-----------|-----------|-12-10--8--7--5----1----4--5--7--7--5-55-5-55-5-5-5-|
-|-----------|-----------|--------------------------------------**---**---*---|

 Gtr 2
-|-----------------------------------------------------------------------|
-|-----------------------------------------------------------------------|
-|-7----------------------------------------------5--6---7-77-7-77-7-7-7-|
-|-7-12--8-----10-----3-----8----88--5------7--8--5------7-77-7-77-7-7-7-|
-|-5-----8-12--10-12--3-12--8-8--88--5-12---7--8--3--4---5-55-5-55-5-5-5-|
-|-------6------8-----1-----6----55--3------5--6-----------**---**---*---|

 Gtr 1
-|---------------------------------------------------|
-|---------------------------------------------------|
-|-----------------------------15--14--12--7----6----|
-|-8-----10-----3-----8----88----4---3---3---6-------|
-|-8-12--10-12--3-12--8-8--88--13--12--10--5----4----|
-|-6------8-----1-----6----55---------------------x\-|

 Gtr 2
-|----------------------------------------|
-|----------------------------------------|
-|----------------------------------------|
-|-8-----10-----3-----8----88--5-----7----|
-|-8-12--10-12--3-12--8-8--88--5-12--7-12-|
-|-6------8-----1-----6----55--3-----5----|

Bridge
 Gtr 1
-|--------x4-|--------x2-|--------x2-|
-|-----------|-----------|-----------|
-|-----------|-----------|-----------|
-|-000-3-2-3-|-----2-0-2-|-----2-0-2-|
-|-----------|-333-------|-444-------|
-|-----------|-----------|-----------|

-|--------x2-|-----------------------------------------------------------|
-|-----------|-----------------------------------------------------------|
-|-----------|-----------------------------------------------------------|
-|-000-3-2-3-|-000-3-2-3/5-3-2-3-2-0-----2-0-2-----2-0-2-----2-0-2-------|
-|-----------|-----------------------333-------333-------444-------44----|
-|-----------|--------------------------------------------------------x\-|

 Gtr 2
-|--------------------------------------------------------------|
-|--------------------------------------------------------------|
-|-7----7------------------------7----7-------------------------|
-|-7-r--7-8----8-10----10-7----7-7-r--7-8----8-10----10-7-------|
-|-5----5-8-r--8-10-r--10-7-r--7-5----5-8-r--8-10-r--10-7-r-----|
-|--------6----6--8-----8-5----5--------6----6--8-----8-5----x\-|


Outro 1
 Gtr 1
-|----------------------------------------------------|
-|----------------------------------------------------|
-|-7---------------------------------------------6--6-|
-|-7-12--8-----10-----3-----8----88--5-----7----------|
-|-5-----8-12--10-12--3-12--8-8--88--5-12--7-12--4--4-|
-|-------6------8-----1-----6----55--3-----5----------|

 Gtr 2
-|----------------------------------------------------------------|
-|----------------------------------------------------------------|
-|-7---------------------------------15--1414-1212-7----6---------|
-|-7-12--8-----10-----3-----8----88----4-------------4----4--7--7-|
-|-5-----8-12--10-12--3-12--8-8--88--13--1212-1010-5----4----7--7-|
-|-------6------8-----1-----6----55--------------------------5--5-|

 Gtr 1
-|------------------|-----------|
-|------------------|-----------|
-|-14---1515-1414-7-|-7--10--14-|
-|---4--------------|-----------|
-|-12---1313-1212-5-|-5---8--12-|
-|------------------|-----------|

 Gtr 2
-|------------------|-----------|
-|------------------|-----------|
-|-7--------------7-|-7--10--14-|
-|-7-r--------------|-----------|
-|-5--------------5-|-5---8--12-|
-|------------------|-----------|

Outro 2
 Gtr 1
-|----------------------------------------------------------------------------|
-|----------------------------------------------------------------------------|
-|-15--171717-191919--18--191919-212121--19--212121-222222--19--212121-222222-|
-|---4------------------4------------------4------------------4---------------|
-|-13--151515-171717--16--171717-191919--17--191919-202020--17--191919-202020-|
-|----------------------------------------------------------------------------|

-|----------------------------------------------------|
-|----------------------------------------------------|
-|-15--171717-191919--19---21---19----21-22-14--10----|
-|---4------------------4----4----r----------------r--|
-|-13--151515-171717--17---19---17----19-20-12---8----|
-|----------------------------------------------------|

 Gtr 2
-|----------------------------------------------------------|
-|----------------------------------------------------------|
-|-------------7----5-7-----------7----6----7-----9-10--7---|
-|-5-----7-----7-10-5-7-12--5-------4----4----r-----------r-|
-|-5-12--7-12--5----3/5-----5-12--5----4----5-----7--8--5---|
-|-3-----5------------------3-------------------------------|

shono

Comments about this tab

No comments/corrections found. Add your own

Complimentary Christian Ringtones
Dadamobile and CGR have teamed up to bring your favorite Christian artists right to your phone. Sign up today and get 10 complementary ringtones!
Tab Country
Did you know CGR has a sister site w/ country guitar tabs? Well we do! Its called Tab Country. It has a great archive with a lot of country tabs.
Rockin Tabs
Are you looking for a site that has rock guitar tabs? Then Rockintabs.com is the place for you. It is a budding site with many rock guitar tabs. Submit your tab today.
Tab Gallery
Tab Gallery has a compilation of christian, rock, and country tabs all in one place. Come visit us.