Guitar Tabs
song title    band name

Join Us Today!

Don't strum alone...
be a part of the largest online Christian music community. Browse thousands of guitar tabs and chat w/ musicians like yourself.


It's Free!

This tab has not yet been rated for accuracy.Sorry, but you must be logged in to rate this tab.
Click here to log-in, or you can click here to register.
(Registration is free)

All songs owned by corresponding publishing company. If you make copies of any song on this website, be sure to report your usage to CCLI.
Going Blind - Craig’s Brother 

Drop D# tuning


Intro 1
 Gtr 1
-|---------------------------------------------------------------------|
-|-1---1-----1-----1-----1-----1-----1-----3----------1----------1-----|
-|-------0-----------0-----------3-----------0----------2----------0---|
-|---2-----------0---------3-3-----3-----0-----0----3-----3----2-------|
-|-3-------3---2-------2---0-----------2----------3----------3-------3-|
-|-------------3-----------------------3----------1--------------------|
   C           G/C         Am          Cadd9      F          C

-|----------------------|
-|-----3----3-------3---|
-|-------0--------0---0-|
-|--0-----0-----0-------|
-|-2----------2---------|
-|-3----------3---------|
   Cadd9

-|----------------------------------------------------------------------3-|
-|-----1-----1-----1-----1-----1-----1-----3----------1----------1------0-|
-|-------0-----------0-----------3-----------0----------2----------0----0-|
-|---2-----------0---------3-3-----3-----0-----0----3-----3----2--------0-|
-|-3-------3---2-------2---0-----------2----------3----------3-------3--2-|
-|-------------3-----------------------3----------1---------------------3-|
   C           G/C         Am          Cadd9      F          C          G

 Gtr 2
-|--------------------------------------------------------3---|
-|---------3-------------3-----------------3--------3-5-6---5-|
-|-5-2-4-5--5-4-5--2-4-5---5-4-2---0-2-4-5---4--4-5-----------|
-|-------------------------------3----------------------------|
-|------------------------------------------------------------|
-|------------------------------------------------------------|

-|------------------------------------------3-5-7-r-|
-|---3-5-6-5-3-5---3-5-6-5-3----------3-5-6---------|
-|-5-------------5-----------5--2-4-5---------------|
-|--------------------------------------------------|
-|--------------------------------------------------|
-|--------------------------------------------------|

Intro 2
 Gtr 1
-|---------------------------------------------------------------------------------------|
-|---------------------------------------------------------------------------------------|
-|-101010101010-999-12-10-9-9h10p9-7-7-1010-9-12-1414-1212-101010-999---------12--10---9-|
-|------------------------------------------------------------------------7---12--10---9-|
-|-----------------------------------------------1212-1010--8-8-8-777\----7-xx10-xx8-xx7-|
-|----------------------------------------------------------------------xx5--------------|

 Gtr 2
-|---------------------------------------------------------------------------------------|
-|---------------------------------------------------------------------------------------|
-|-10-----------9----------7---------101010-9-10--10---------999--777---------12--10---9-|
-|-10-6---------9-6--------7-6-------101010-9-10--10-6-------999--777-----7---12--10---9-|
-|--8-----------7----------5--------/-8-8-8-7--8---8---------777--555-----7-xx10-xx8-xx7-|
-|----------------------------------------------------------------------xx5--------------|


Cont’d
 Gtr 1
-|-----------------------------------------------------------------------------|
-|------------------13---------------------------------------------------------|
-|-101010101010-999----9-9h10p9-7---------------------7h9h10-10101010-9-9h10p9-|
-|--------------------------------------7h9h10-7h9h10--------------------------|
-|--------------------------------5h7h8----------------------------------------|
-|-----------------------------------------------------------------------------|

 Gtr 2
-|---------------------------------------------------------------------------|
-|---------------------------------------------------------------------------|
-|-10-----------9------7-----------7------------9-----------10-------999-777-|
-|-10-6---------9-6----7-6---------7-stop-------9-stop------10-6-----999-777-|
-|--8-----------7------5-----------5------------7------------8-------777-555-|
-|---------------------------------------------------------------------------|

 Both Gtr’s
-|-----------------|
-|-----------------|
-|-----------------|
-|---7---7---7---7-|
-|---7---7---7---7-|
-|-xx5-xx5-xx5-xx5-|

Verse 
 Gtr 1
-|----------------------x2-|
-|-------------------------|
-|-5---7---9--9-9-10-1010--|
-|-------------------------|
-|-3---5---7xx7x7x-8xx8x8x-|
-|-------------------------|

 Gtr 2
-|----------------------x2-|
-|-------------------------|
-|-------------------------|
-|-7---5---2--2-2--3--3-3--|
-|-7---5---2--2-2--3--3-3--|
-|-5---3---0xx0x0x-1xx1x1x-|

Riff
 Gtr 1
-|----------------------------------------------------|
-|----------------------------------------------------|
-|----------------------------------------------------|
-|----------------------------------------------3---3-|
-|---10----10-----10----10-----8----8----8------3---3-|
-|-8----88-----88----88----8-6---66---66---6--xx1-xx1-|

 Gtr 2
-|--------------------------------------------------|
-|--------------------------------------------------|
-|--------------------------------------------------|
-|--------------------------------------------3---3-|
-|-----10---10-----10---10-----8---8---8------3---3-|
-|-888----8----777----7----666---6---5---5--xx1-xx1-|


Chorus 1
 Gtr 1
-|------------------------------------------------------------------|
-|------------------------------------------------------------------|
-|-10----9---10------------------------10----99-77------------5-7-9-|
-|-10-6--9-6-10-6---7/99-9/1010-10/12--10-6--99-77----7---7---5-7-9-|
-|--8----7----8-------------------------8----77-55----7---7---3-5-7-|
-|--------------------------------------------------xx5-xx5---------|

 Gtr 2
-|------------------------------------------------------------------|
-|------------------------------------------------------------------|
-|-10----9---10------------------------10----99-77------------5-7-9-|
-|-10-6--9-6-10-6----------------------10-6--99-77----7---5---5-7-9-|
-|--8----7----8-----3/55--5/77--7/8-----8----77-55----7---5---3-5-7-|
-|--------------------------------------------------xx5-xx3---------|

 Gtr 1
-|------------------------------------------------------------------|
-|------------------------------------------------------------------|
-|-10----9---10------------------------10----99-77------------------|
-|-10-6--9-6-10-6---7/99-9/1010-10/12--10-6--99-77----7---7---7---7-|
-|--8----7----8-------------------------8----77-55----7---7---7---7-|
-|--------------------------------------------------xx5-xx5-xx5-xx5-|

 Gtr 2
-|------------------------------------------------------------------|
-|------------------------------------------------------------------|
-|-10----9---10------------------------10----99-77------------------|
-|-10-6--9-6-10-6----------------------10-6--99-77----7---7---7---7-|
-|--8----7----8-----3/55--5/77--7/8-----8----77-55----7---7---7---7-|
-|--------------------------------------------------xx5-xx5-xx5-xx5-|

Verse x1
Riff

Verse 3
 Both Gtr’s
-|----------------------------------------|
-|----------------------------------------|
-|----------------------------------------|
-|-10-----9------------8----7-------3---3-|
-|-10-12--9-12--pause--8-6--7-4-----3---3-|
-|--8-----7------------6----5-----xx1-xx1-|

Chorus 2
 Both Gtr’s
-|-------------------------------------------------------------------|
-|-------------------------------------------------------------------|
-|-10----9----10-----7---9---10----99-77-----------------------------|
-|-10-6--9-6--10-6---7---9---10-6--99-77-----7---5---3-2-0---0---2-3-|
-|--8----7-----8-----5---7----8----77-55-----7---5---------3---3-----|
-|-----------------------------------------xx5-xx3-------------------|

-|--------------------------------------------------------|
-|--------------------------------------------------------|
-|-10----9----10----1414-99--10----99-77------------------|
-|-10-6--9-6--10-6--1414-99--10-6--99-77----7---7---7---7-|
-|--8----7-----8----1212-77---8----77-55----7---7---7---7-|
-|----------------------------------------xx5-xx5-xx5-xx5-|


Break
 Gtr 1
-|-------------------------------------------------------------------------------|
-|-------------------------------------------------------------------------------|
-|-1010-99-77------------------------77------------------------------------------|
-|------------1010--1010-99-77----------1010-99-10-9-7--777-9-10-9-7--777-9-10-9-|
-|-----------------------------1010----------------------------------------------|
-|-------------------------------------------------------------------------------|

 Gtr 2
-|----------------------------------------------------------------------------|
-|----------------------------------------------------------------------------|
-|----------------------------------------------------------------------------|
-|-7----------------3----------------5-------------------7------------7-------|
-|-7-r--------------3-r--------------5-r-----------------7-stop-------7-stop--|
-|-5----------------1----------------3-------------------5------------5-------|
Bridge
 Gtr 1
-|-------------------------------------------------------------------|
-|-------------------------------------------------------------------|
-|-10---------------------------------10-------------------9--7--55--|
-|-10-6--5----1010-10-99-9-77-7-55-5--10-6--5----7-------------------|
-|--8----5-6---------------------------8----5-6--7-stop----7--5--33/-|
-|-------3----------------------------------3----5-------------------|

 Gtr 2
-|-------------------------------------------------------------------|
-|-------------------------------------------------------------------|
-|-10------------------------------99--10----------------------------|
-|-10-6--5----7--------------------99--10-6--5----7-------10--9--77--|
-|--8----5-6--7-8------------------77---8----5-6--7-stop--10--9--77--|
-|-------3----5------------------------------3----5--------8--7--55--|

 Gtr 1
-|-------------------------------------------------------------------^---|
-|-------------------------------------------------------^-----------8b--|
-|-10---------------------------------10-----------------7b-p5---7p5-----|
-|-10-6--5----1010-10-99-9-77-7-55-5--10-6--5----77-777--------7---------|
-|--8----5-6---------------------------8----5-6--77-777------------------|
-|-------3----------------------------------3----55-555------------------|
                                                 .. ...
 Gtr 2
-|----------------------------------------------------------------------|
-|----------------------------------------------------------------------|
-|-10-----------------------------99--10-------------------------999----|
-|-10-6--5----7-------------------99--10-6--5----77-777--777-7---999----|
-|--8----5-6--7-8-----------------77---8----5-6--77-777--777-7---777----|
-|-------3----5-----------------------------3----55-555--555-5----------|
                                                 .. ...  ... .
Outro
 Gtr 1
-|-----------------------------------------------|
-|-----------------------------------------------|
-|-10----------9--7--5--4----------------------2-|
-|-10-6--5-------------------3----5------------2-|
-|--8----5-6---7--5--3--2----3-6--5-6---3-2-3--0-|
-|-------3-------------------1----3--------------|

 Gtr 2
-|-----------------------------------------------|
-|-----------------------------------------------|
-|-10------------------------------------------2-|
-|-10-6--5----10--9--7--5----3----5------------2-|
-|--8----5-6--10--9--7--5----3-6--5-6---3-2-3--0-|
-|-------3-----8--7--5--3----1----3--------------|
shono

Comments about this tab

No comments/corrections found. Add your own

Complimentary Christian Ringtones
Dadamobile and CGR have teamed up to bring your favorite Christian artists right to your phone. Sign up today and get 10 complementary ringtones!
Tab Country
Did you know CGR has a sister site w/ country guitar tabs? Well we do! Its called Tab Country. It has a great archive with a lot of country tabs.
Rockin Tabs
Are you looking for a site that has rock guitar tabs? Then Rockintabs.com is the place for you. It is a budding site with many rock guitar tabs. Submit your tab today.
Tab Gallery
Tab Gallery has a compilation of christian, rock, and country tabs all in one place. Come visit us.