Guitar Tabs
song title    band name

Join Us Today!

Don't strum alone...
be a part of the largest online Christian music community. Browse thousands of guitar tabs and chat w/ musicians like yourself.


It's Free!

This tab has been rated a 0.00 out of 5 for accuracy. (6 votes)Sorry, but you must be logged in to rate this tab.
Click here to log-in, or you can click here to register.
(Registration is free)

All songs owned by corresponding publishing company. If you make copies of any song on this website, be sure to report your usage to CCLI.
Other Side Of The Radio
Chris Rice


ok, this is like just the main chorus part.

1)-0-4-4-4-4-4-4-4-4-2-0-2-0-4-4-4-4-4-4-2-4-2-4-5-4-0-------4-4-4-4-4-4-4-2-2->
2)------------------------------------------------------0-0-------------------->
3)----------------------------------------------------------------------------->
4)----------------------------------------------------------------------------->
5)----------------------------------------------------------------------------->
6)----------------------------------------------------------------------------->


...continued
1)-0-4-2-0---------------4-2-0-0-2-0------------------------------------------->
2)---------2-0-2-5-2-5-5------------------------------------------------------->
3)----------------------------------------------------------------------------->
4)----------------------------------------------------------------------------->
5)----------------------------------------------------------------------------->
6)----------------------------------------------------------------------------->

Comments about this tab

Brendini - 2004-05-01

This tab is so bad that I feel like I need to fix it. I don't have the whole song down, but it uses the A, B, and C# chords. There also might be a E in the chorus somewhere, and there's definetely an E in the verse. You'll have to use barre or power chords for all the chords. If you use power chords, which is what I'm doing, use the A on the 5th fret of the E string and go from there.
I think the chorus might go like this:
A B C# E
A B B B
A B C# B
A B B A
A B B A
This may not be perfect, but hey it's my first attempt at tabbing a song, and it's certainly better than what was here before. Hopefully this will be enough for better guitar players to figure out the rest of the song.


raysofsunshine - 2004-07-12

I don't think it's bad, it's just out of tune...keep on tryin, but make sure you have the right key signiture! ~Katie


Add a comment/correction

Complimentary Christian Ringtones
Dadamobile and CGR have teamed up to bring your favorite Christian artists right to your phone. Sign up today and get 10 complementary ringtones!
Tab Country
Did you know CGR has a sister site w/ country guitar tabs? Well we do! Its called Tab Country. It has a great archive with a lot of country tabs.
Rockin Tabs
Are you looking for a site that has rock guitar tabs? Then Rockintabs.com is the place for you. It is a budding site with many rock guitar tabs. Submit your tab today.
Tab Gallery
Tab Gallery has a compilation of christian, rock, and country tabs all in one place. Come visit us.