Guitar Tabs
song title    band name

Join Us Today!

Don't strum alone...
be a part of the largest online Christian music community. Browse thousands of guitar tabs and chat w/ musicians like yourself.


It's Free!

DC Talk - Into Jesus

This tab has been rated a 3.60 out of 5 for accuracy. (5 votes)Sorry, but you must be logged in to rate this tab.
Click here to log-in, or you can click here to register.
(Registration is free)

All songs owned by corresponding publishing company. If you make copies of any song on this website, be sure to report your usage to CCLI.
Song: Into Jesus
Band: dc Talk
Album: Supernatural
Lost booklet, I can't find the copyright info, will post this ASAP!!
Tabbed by: Dan Davis (davis_dan@hotmail.com)
Generated by: Notepad ;o)
 
    _/_/_/ _/  _/ _/_/_/ _/_/_/   _/   _/_/
   _/     _/  _/   _/     _/   _/  _/ _/  _/
  _/  _/ _/  _/   _/     _/   _/_/_/ _/_/
 _/  _/ _/  _/   _/     _/   _/  _/ _/  _/
_/_/_/ _/_/_/ _/_/_/   _/   _/  _/ _/  _/
 
----------------------------------------------------------------
Intro: Em . . . Em . . . Em . . D A . . . 2x
 
e--------------            e--------------
B-----0-----0--            B-----0--------
G---0----2-----  3x then   G---0----2-----
D-2------------            D-2------------
A--------------            A--------------
E--------------            E--------------
  Em     Esus4               C
 
----------------------------------------------------------------
Verse: Em . . . Em . . . Em . . D A . . . 2x
 
e--------------            e--------------
B-----0-----0--            B-----0--------
G---0----2-----  3x then   G---0----2-----
D-2------------            D-2------------
A--------------            A--------------
E--------------            E--------------
  Em     Esus4               C
 
----------------------------------------------------------------
Pre-chorus: C . . . A . . . G . . . B . . .
 
Pick evenly, each one = 1 beat
e-----------------|-----------------|-----------------|---------7-7p57--
B-------------0---|-------------0---|-------------0---|-----------------
G-----0---2-------|-----0---2-------|-----0---2-------|-----------------
D-2---------------|-2---------------|-0---------------|-4---------------
A-----------------|-----------------|-----------------|-----------------
E-----------------|-----------------|-----------------|-----------------
  C                 A                G                 B
 
Strum this once per chord
e-0---------------|-0---------------|-3---------------|-2---------------
B-1---------------|-2---------------|-3---------------|-4---------------
G-0---------------|-2---------------|-0---------------|-4---------------
D-2---------------|-2---------------|-0---------------|-4---------------
A-3---------------|-0---------------|-2---------------|-2---------------
E-0---------------|-0---------------|-3---------------|-2---------------
  C                 A                 G                 B
 
----------------------------------------------------------------
Chorus: Em . . . C . . . G/D . . . D . . .
 
e-7-------7-------|-8-------8-------|-7-------7-------|-5-------5-------|
B---8-------8-----|---8-------8-----|---8-------8-----|---6-------6-----| 
G-----7-------7---|-----9-------9---|-----7-------7---|-----5-------5---|
D-------10------10|-------10------10|-------9-------9-|-------7-------7-| 
A-----------------|-----------------|-----------------|-----------------|
E-----------------|-----------------|-----------------|-----------------|
  Em                C                 G/D               D
 
-----------------------------------------------------------------
Bridge: E . . . G . . . A . . . A . . .   )
       }2x
        E . . . G . . . F#m . .. . A . .. . )
 
e-0-|-3-|-0-|-2-
B-0-|-3-|-2-|-2-
G-1-|-0-|-2-|-2-
D-2-|-0-|-2-|-4-
A-2-|-2-|-0-|-4-
E-0-|-3-|-0-|-2-
  
  E   G   A   F#m
===============================================================
 
     _/  _/  _/_/   _/_/_/   _/_/   _/     _/_/_/
    _/  _/ _/   _/ _/      _/  _/  _/    _/
   _/  _/ _/   _/ _/      _/_/_/  _/     _/_/_/
  _/ _/  _/   _/ _/      _/  _/  _/           _/
 _/_/     _/_/  _/_/_/  _/  _/  _/_/_/  _/_/_/

VERSE 1 
Em
D A Em
Em
D A C

PRECHORUS 
A/C# G/D
B/D# Em

CHORUS
C G/D D Em
C G/D D Em
C G/D D
Am Bm Em             - Intro
 
VERSE 2
Em
D A Em
Em
D A C

REPEAT PRECHORUS 
 
REPEAT CHORUS
 
BRIDGE
E G F#m A E G A E
G A E
G F#m A E
G A E
G F#m A 
C A/C# Em
 
(soft playing)
REPEAT CHORUS X3
 
Play intro once

Comments about this tab

musicmatt112590 - 2005-04-13

Dude this is right on! I had all that figured out except the G/D, but that's what I thought it was. Besides that, this is exactly how I play it! Except, what was your guitar section all about? Bass tabs should only be in the bass tabs section.


110%panhead - 2005-10-08

that's the melody


Add a comment/correction

Complimentary Christian Ringtones
Dadamobile and CGR have teamed up to bring your favorite Christian artists right to your phone. Sign up today and get 10 complementary ringtones!
Tab Country
Did you know CGR has a sister site w/ country guitar tabs? Well we do! Its called Tab Country. It has a great archive with a lot of country tabs.
Rockin Tabs
Are you looking for a site that has rock guitar tabs? Then Rockintabs.com is the place for you. It is a budding site with many rock guitar tabs. Submit your tab today.
Tab Gallery
Tab Gallery has a compilation of christian, rock, and country tabs all in one place. Come visit us.