Guitar Tabs
song title    band name

Join Us Today!

Don't strum alone...
be a part of the largest online Christian music community. Browse thousands of guitar tabs and chat w/ musicians like yourself.


It's Free!

Relient K - I'm Lion-O

This tab has been rated a 3.50 out of 5 for accuracy. (2 votes)Sorry, but you must be logged in to rate this tab.
Click here to log-in, or you can click here to register.
(Registration is free)

All songs owned by corresponding publishing company. If you make copies of any song on this website, be sure to report your usage to CCLI.
Song: Iím Lion-O
Band: Relient K
Albumn: The Anatomy of the Tongue and Cheek
Label: Gotee Records c 2001
Tabbed By: Andy Wolkonowski

I'm not including the strumming rhythm, so listen to the song to get that down.

Intro:
Guitar 1 (clean) (lead):

e|--------------|
B|--------------|
G|---9----------|
D|---9-7-11-9---|
A|---7-7-11-9---|
E|-----5-9--7---|
Play 1x

e|----------------------------------|
B|----------------------------------|
G|---9-9-9---9-9----9-9---10-9-10---|
D|---9-9-9-7-9-9-11-9-9-9-10-9-10---|
A|---7-6-7-7-6-7-11-6-7-9-8--7-8----|
E|---------5-----9------7-----------|
Play 4x

e|-----------------------------|
B|-----------------------------|
G|---9-9-9---9-9----9-9---9----|
D|---9-9-9-7-9-9-11-9-9-9-9----|
A|---7-6-7-7-6-7-11-6-7-9-7----|
E|---------5-----9------7------|
Play 1x, Let last two chords ring out.

Guitar 2 (clean) (rhythm):

e|--------------|
B|--------------|
G|---9----------|
D|---9-7-11-9---|
A|---7-7-11-9---|
E|-----5-9--7---|
Play 5x

e|----------------|
B|----------------|
G|---9--------9---|
D|---9-7-11-9-9---|
A|---7-7-11-9-7---|
E|-----5-9--7-----|
Play 1x, Let last two chords ring out.

Pre-Verse 1:
Guitar 1 (distortion):

e|--------------|
B|--------------|
G|---9----------|
D|---9-7-11-9---|
A|---7-7-11-9---|
E|-----5-9--7---|
Play 2x

e|----------------5-4-4-5-5-------------5-4-7-7-7---|
B|---5-5-4-5-5-5------------5-5-4-5-5-5-------------|
G|--------------------------------------------------|
D|--------------------------------------------------|
A|--------------------------------------------------|
E|--------------------------------------------------|
Play 2x

Guitar 2 (distortion):

e|--------------|
B|--------------|
G|---9----------|
D|---9-7-11-9---|
A|---7-7-11-9---|
E|-----5-9--7---|
Play 4x

Verse 1:
Both Guitars (distortion):

e|--------------|
B|--------------|
G|---9----------|
D|---9-7-11-9---|
A|---7-7-11-9---|
E|-----5-9--7---|
Play 4x

Chorus 1:
Both guitars(distortion):

e|--------------|
B|--------------|
G|---9----------|
D|---9-7-11-9---|
A|---7-7-11-9---|
E|-----5-9--7---|
Play 4x

Guitar 1 (distortion):

e|-------------------|
B|---4-5-7-5-4-4h5---|
G|-------------------|
D|-------------------|
A|-------------------|
E|-------------------|
Play 1x

Guitar 2 (distortion):

e|-------|
B|-------|
G|-------|
D|---9---|
A|---9---|
E|---7---|
Palm-mute through lead riff

Both Guitars (distortion):

e|--------------|
B|--------------|
G|---9----------|
D|---9-7-11-9---|
A|---7-7-11-9---|
E|-----5-9--7---|
Play 8x

Interlude:
Guitar 1 (distortion):

e|-------------------|
B|---4-5-7-5-4-4h5---|
G|-------------------|
D|-------------------|
A|-------------------|
E|-------------------|
Play 2x, let the last 5 ring out both times

Guitar 2 (distortion):

e|-------|
B|-------|
G|-------|
D|---9---|
A|---9---|
E|---7---|
Palm-mute through first time of lead riff, but not during ring out.

e|--------------|
B|--------------|
G|---9----------|
D|---9-7-11-9---|
A|---7-7-11-9---|
E|-----5-9--7---|
Play 4x, Palm-muted

Pre-Verse 2:
Both Guitars (clean):

e|--------------|
B|--------------|
G|--------9-----|
D|---11-9-9-9---|
A|---11-9-7-9---|
E|---9--7---7---|
Play 2x

Verse 2:
Both Guitars (clean):

e|--------------|
B|--------------|
G|--------9-----|
D|---11-9-9-7---|
A|---11-9-7-7---|
E|---9--7---5---|
Play 4x

Chorus 2:
Both Guitars (distortion):

e|--------------|
B|--------------|
G|---9----------|
D|---9-7-11-9---|
A|---7-7-11-9---|
E|-----5-9--7---|
Play 8x

e|-------|
B|-------|
G|---9---|
D|---9---|
A|---7---|
E|-------|
End on this note, let it ring out.

That's it, Any questions about this tab, e-mail me at mtr_coolfunk@hotmail.com

Comments about this tab

sack - 2005-01-22

Hey.
Uh, I think they use octaves alot in this song.
Will


Add a comment/correction

Complimentary Christian Ringtones
Dadamobile and CGR have teamed up to bring your favorite Christian artists right to your phone. Sign up today and get 10 complementary ringtones!
Tab Country
Did you know CGR has a sister site w/ country guitar tabs? Well we do! Its called Tab Country. It has a great archive with a lot of country tabs.
Rockin Tabs
Are you looking for a site that has rock guitar tabs? Then Rockintabs.com is the place for you. It is a budding site with many rock guitar tabs. Submit your tab today.
Tab Gallery
Tab Gallery has a compilation of christian, rock, and country tabs all in one place. Come visit us.