Guitar Tabs
song title    band name

Join Us Today!

Don't strum alone...
be a part of the largest online Christian music community. Browse thousands of guitar tabs and chat w/ musicians like yourself.


It's Free!

DC Talk - I Wish We'd All Been Ready

This tab has been rated a 5.00 out of 5 for accuracy. (9 votes)Sorry, but you must be logged in to rate this tab.
Click here to log-in, or you can click here to register.
(Registration is free)

All songs owned by corresponding publishing company. If you make copies of any song on this website, be sure to report your usage to CCLI.
Author/Artist: dc talk
Title: I wish We'd All Been Ready (written by Larry Norman)c 1969 Beechwood
music Corp and J.C. Love Publishing Co.
Album: Jesus Freak (the single)
Transcribed by: Darrick Hurst
Email: mjhurst@flash.net

Intro and Verse:

-|-----------------1--------------------------------1---------------(5)-------
-|---------------------1-----------------------1-----------------(4)----------
-|----------2--------------2--------------2-------------------(5)-------------
-|-------3------3--------------------1---------------------(3)----------------
-|----3-----------------------------------------------------------------------
-|-1--------------------------------------------------------------------------
                                                                              

--------------------------1------------|------------------------------|-------
-----------------1-------------1-------|------------6---5----3---5----|-------
-------------3-------3--------------3--|------------3---3----3---3----|-------
---------3-----------------------------|------------5---5----5---5----|-------
---1-----------------------------------|------------3---3----3---3----|-------
---------------------------------------|------------------------------|-------
                                       "I wish We'd All Been Ready..."
Chorus:
-|------------------------------------------------------------------1---------
-|-3--3--3--3--------------8--8---8--8---------------------------------1------
-|-3--3--3--3--2--2--2--2--8--8---8--8--7--7--7--7-------------2-----------2--
-|-3--3--3--3--3--3--3--3--8--8---8--8--8--8--8--8----------3-----3-----------
-|-1--1--1--1--3--3--3--3--6--6---6--6--8--8--8--8-------3--------------------
-|-------------1--1--1--1---------------6--6--6--6---1------------------------
                                                                              

-|------------------------|-------------|-------------------------------------
-|------1---1-------1---1-|---------1---|-------------------------------------
-|------0h2p0-------0h2p0-|---------3---|-------------------------------------
-|---3-----------3--------|---------2---|-------------------------------------
-|------------------------|-0---1---3---|-------------------------------------
-|------------------------|-------------|-------------------------------------
                                                                              
Solo:
------------------------------------|------------------10---------------------
---10--10--10----10--10h11--10--10--|-10--10--10---11-------13---10-----------
------------------------------------|-----------------------------------------
------------------------------------|-----------------------------------------
------------------------------------|-----------------------------------------
------------------------------------|-----------------------------------------
                                                                              

---------------------------------------------|--------------------------------
--------------------------10-----------------|---10--10--10----10--10h11--10--
-10h12p10---------10-----------12---10---12--|--------------------------------
------------10/12-----12---------------------|--------------------------------
---------------------------------------------|--------------------------------
---------------------------------------------|--------------------------------
                                                                              

------|-------------------10--------------------------------------------------
--10--|--10--10--10---11------13--10------------------------------------------
------|-------------------------------10h12p10---12--12p10--10--10------------
------|-------------------------------------------------------------10--12----
------|-----------------------------------------------------------------------
------|-----------------------------------------------------------------------
                                                                              

------------------------------|------1-------|------------|-----------|--3----
---------10-------------------|------1-------|------------|-----------|--3----
-10-----------12----10-----12-|------3-------|------------|-----------|--3----
-----12-----------------------|------3-------|------------|-----------|--3----
------------------------------|------1-------|------------|-----------|--5----
------------------------------|--------------|------------|-----------|--3----
                                                                              

-|-------------------------------------------------|--1-----------------------
-|-3--3--3--3--------------8--8---8--8-------------|--1-----------------------
-|-3--3--3--3--2--2--2--2--8--8---8--8--7--7--7--7-|--2-----------------------
-|-3--3--3--3--3--3--3--3--8--8---8--8--8--8--8--8-|--3-----------------------
-|-1--1--1--1--3--3--3--3--6--6---6--6--8--8--8--8-|--3-----------------------
-|-------------1--1--1--1---------------6--6--6--6-|--1----------------------- 
                                                                              
Outro:
-|------------------------------|---1-----------------------------------------
-|------------6---5----3---5----|---1-----------------------------------------
-|------------3---3----3---3----|---2-----------------------------------------
-|------------5---5----5---5----|---3-----------------------------------------
-|------------3---3----3---3----|---3-----------------------------------------
-|------------------------------|---1-----------------------------------------
                                              repeat 3x                       


This should be correct for the most part. Listen to the CD to get the timing
and everything right. This is a great song and I hope this tab works for
you.      --Darrick

Comments about this tab

Miniscott - 2004-10-27

this song is awesome!!! I sang it at church once...it's so great!!!


chickachonk - 2005-03-01

u r da bomb!
great job at tabbing this song
it is perfect
thanks, tony


chickachonk - 2005-03-01

u r da bomb!
great job at tabbing this song
it is perfect
thanks,
tony


JesusFreak4Real - 2006-03-23

Really great song i luv it thanks dude


Add a comment/correction

Complimentary Christian Ringtones
Dadamobile and CGR have teamed up to bring your favorite Christian artists right to your phone. Sign up today and get 10 complementary ringtones!
Tab Country
Did you know CGR has a sister site w/ country guitar tabs? Well we do! Its called Tab Country. It has a great archive with a lot of country tabs.
Rockin Tabs
Are you looking for a site that has rock guitar tabs? Then Rockintabs.com is the place for you. It is a budding site with many rock guitar tabs. Submit your tab today.
Tab Gallery
Tab Gallery has a compilation of christian, rock, and country tabs all in one place. Come visit us.