Guitar Tabs
song title    band name

Join Us Today!

Don't strum alone...
be a part of the largest online Christian music community. Browse thousands of guitar tabs and chat w/ musicians like yourself.


It's Free!

Elms, The - Speaking in Tongues.

This tab has been rated a 3.00 out of 5 for accuracy. (1 vote)Sorry, but you must be logged in to rate this tab.
Click here to log-in, or you can click here to register.
(Registration is free)

All songs owned by corresponding publishing company. If you make copies of any song on this website, be sure to report your usage to CCLI.
Artist: The Elms
Title: Speaking in Toungues
Album: Truth, Soul, and Rock & Roll
Tabber: David (Mosiggy@yahoo.com)

This is a really spiffy song.  
Standard Tuning.
There are two guitars in the song, but they play the same thing together.
The opening riff is awesome as you already know if you have the CD. This
is a fun song to play with.

(intro riff #1)
E--0-0------------------------------------------------------------------------]
B-/5-5--3p2--0-0--------------------------------------------------------------]
G------------4-4--2-2-2h4-2\1-------------------------------------------------]
D------------------------------2-2----and play this six times after the HEY---]
A-----------------------------------------------------------------------------]
E-----------------------------------------------------------------------------]

(intro riff #2)
on the three low strings
D--------------------------------2-]
A--/5-4-2-0---------/5-4-2-0h2h4---]
E-----------3p2p0------------------]
[___first half___]

(verse)
on the four low strings
he plays around on these four chords
G---9---7---2-------]
D---9---7---2---2---]
A---7---5---0---2---]
E---------------0---]
    e   D   A   E

I play it like this
e e e e D D e e A A A A D D e

There's a little solo after the fourth line of the verse like this
G------7-----------]
D----7--7---2--2---]
A--5-----5--2--2---]
E-----------0--0---]

(chorus)
G--9------7------2------7--------------------]
D--9-(x8)-7-(x8)-2-(x4)-7-(x4)---------------]
A--7------5------0------5------5-4-2-0-------]
E--------------------------------------3p2p0-]

second time through
G--9------7------2------7--------------------]
D--9-(x8)-7-(x8)-2-(x4)-7-(x4)-------------2-]
A--7------5------0------5------5-4-2-0h2h4---]
E--------------------------------------------]

after the chorus play the intro riff #1 twice again

verse

chorus 

I don't know the solo it's around the fifth frets on B and high E strings

verse

(interlude/pause) before chorus
G---7------/-9---------]
D---7-(x3)-/-9-(x2)----]
A---5------/-7------7\-]
E----------------------]

play intro riff #2

chorus

play the first half of intro riff #2 twice

play intro riff #1 to end except G-2h4-2\1-----]
                                 D---------2-2-]
                                 A-----------2-]
                                 E-----------0-]

You can get the timing from the CD.  This should be really close to
correct if it isn't.  Any questions email me @ mosiggy@yahoo.com.
Remember I Peter 5:7 "Give all your worries and cares to God, for he cares
for you."  Pray because God will hear you.  Peace I'm out.

Comments about this tab

No comments/corrections found. Add your own

Complimentary Christian Ringtones
Dadamobile and CGR have teamed up to bring your favorite Christian artists right to your phone. Sign up today and get 10 complementary ringtones!
Tab Country
Did you know CGR has a sister site w/ country guitar tabs? Well we do! Its called Tab Country. It has a great archive with a lot of country tabs.
Rockin Tabs
Are you looking for a site that has rock guitar tabs? Then Rockintabs.com is the place for you. It is a budding site with many rock guitar tabs. Submit your tab today.
Tab Gallery
Tab Gallery has a compilation of christian, rock, and country tabs all in one place. Come visit us.