Guitar Tabs
song title    band name

Join Us Today!

Don't strum alone...
be a part of the largest online Christian music community. Browse thousands of guitar tabs and chat w/ musicians like yourself.


It's Free!

Relient K - Trademark

This tab has been rated a 3.60 out of 5 for accuracy. (10 votes)Sorry, but you must be logged in to rate this tab.
Click here to log-in, or you can click here to register.
(Registration is free)

All songs owned by corresponding publishing company. If you make copies of any song on this website, be sure to report your usage to CCLI.
Band: Relient K
Song: Trademark
Album: Two Lefts Don't Make A Right...But Three Do
Tabbed By: Kyle (Rock4Christ77@aol.com)

The whole song is in drop D tuning

Intro:

Guitar 1
x 4
e---------------------------------------------
B---------------------------------------------
G---------------------------------------------
D-044--77h99--44--77h9--00--77/66--00--77h9/6-
A-044---------44--------00---------00---------
D-044---------44--------00---------00---------

Guitar 2
Only play guitar part 1 until 3rd time
e-------------------------------------------------------
B-------------------------------------------------------
G-------------------------------------------------------
D-44--1111h12--44--1111h12--00--1111/99--00--1111h12/9--
A-44-----------44-----------00-----------00-------------
D-44-----------44-----------00-----------00-------------

Intro Part 2:

Guitar 1
x2
e-------------------------------------------------------
B-------------------------------------------------------
G-------------------------------------------------------
D---11--9--14--12--11--9--6--7--4-----------------------
A-00--00-00--00--00--00-00-00-00------------------------
D-------------------------------------------------------
  xx  xx xx  xx  xx  xx xx xx xx

Guitar 2
let a A power chord ring for the guitar 1's first time through, then play
e------------------------------------------------------
B------------------------------------------------------
G------------------------------------------------------
D-7777777777777777-22222222-00000000-------------------
A-7777777777777777-22222222-00000000-------------------
D-7777777777777777-22222222-00000000-------------------

Verse:

Guitar 1
x2
Play each note open once, then palm mute until you switch to the next chord

A E* F#* D

Guitar 2
x4
Play this when the first guitar plays the chord progression the second time
e-----------------
B-----------------
G---11--11--11--14
D-11--11--11--11--
A-----------------
D-----------------

Pre-Chorus:
x2
e---------------------------------------
B---------------------------------------
G---------------------------------------
D-44-444-477777777-00000000-22222222----
A-44-444-477777777-00000000-22222222----
D-44-444-477777777-00000000-22222222----

then play

e------------------------------------
B------------------------------------
G------------------------------------
D-7------------------22222222--------
A-7------------------22222222--------
D-7------------------22222222--------
                     xxxxxxxx

Chorus:

A D A D

then

e-----------------------------------------------------
B-----------------------------------------------------
G-------------------------------------77-7----77-7----
D-44444444-33333333-22222222-11111111-77-700-077-700--
A-------------------------------------55-500-055-500--
D-----------------------------------------00-0----00--
  xx xx    xx xx    xx xx    xx xx


Go back to
Intro
then..
Intro part 2
then..
Verse
then..
Pre-Chorus
then..
Chorus
then..

Guitar Solo Part:

Guitar 1
x5
e---------------------------------------
B---------------------------------------
G---------------------------------------
D-12-11979/11---------------------------
A------------9h1297-9/11----------------
D---------------------------------------

Guitar 2
x5
e---------------------------------------
B---------------------------------------
G---------------------------------------
D-7777777-2-22-0000---------------------
A-7777777-2-22-0000---------------------
D-7777777-2-22-0000---------------------

than go to..
Chorus (first part x2)
then..
Guitar Solo Part x 4
and end on an A power chord

Comments about this tab

stonedonjc - 2005-06-24

this tab is so beautiful it makes me want to cry. good job.


matix1993 - 2006-04-01

i have the book and u dont one thing right, i give it a 1 for effort and a 0 for correctness


1chance - 2006-06-17

This tab is wonderfully done. Great job. As far as I can tell, you've got it all down perfectly. Thanks.


joshtherocker - 2006-07-30

i dont think its normal tunning


joshtherocker - 2006-07-30

i mean i do think it is normal tunning


joshtherocker - 2006-08-04

solo is this

b-7-6-4-2-4h6p2-4---4|X 3 b-7-6-4-2-4h6p2-4---4-2-|
g--------------4-4-2-| g--------------4-4-2----|

and at the end of the song they play this with a yaya effect and end on g-2~
d-2~
a-0~


mitsukai_zero - 2006-09-19

Matix, if you have the book why don't you post it then? XD

This is the most accurate one I've seen... alittle confusing though.


Add a comment/correction

Complimentary Christian Ringtones
Dadamobile and CGR have teamed up to bring your favorite Christian artists right to your phone. Sign up today and get 10 complementary ringtones!
Tab Country
Did you know CGR has a sister site w/ country guitar tabs? Well we do! Its called Tab Country. It has a great archive with a lot of country tabs.
Rockin Tabs
Are you looking for a site that has rock guitar tabs? Then Rockintabs.com is the place for you. It is a budding site with many rock guitar tabs. Submit your tab today.
Tab Gallery
Tab Gallery has a compilation of christian, rock, and country tabs all in one place. Come visit us.