Guitar Tabs
song title    band name

Join Us Today!

Don't strum alone...
be a part of the largest online Christian music community. Browse thousands of guitar tabs and chat w/ musicians like yourself.


It's Free!

DC Talk - Godsend

This tab has not yet been rated for accuracy.Sorry, but you must be logged in to rate this tab.
Click here to log-in, or you can click here to register.
(Registration is free)

All songs owned by corresponding publishing company. If you make copies of any song on this website, be sure to report your usage to CCLI.
Godsend
Dc Talk
Supernatural
Tab by: Tim Jones
http://members.aol.com/ccfibril/guitar/guitarpage.html

Riff 1:(there are two guitars: acoustic plays root chords (C & F), the clean
electric plays the chord emphasis on lead lick. In the verse, the C and F
is where the riff is played, except where there is an *. Use variation of
picking the root notes and the 5th. Ad lib solo riffs not tabbed YET. Working
on it.

 C   CM7 C2   C                    F   F(b5) F6 F
|----------------|----------------|----------------|----------------|
|-1 - 0 - 3 - 1 -|-1 - 0 - 3 - 1 -|-1 - 0 - 3 - 1 -|-1 - 0 - 3 - 1 -|
|-0-----------0 -|-0-----------0 -|-2-----------2 -|-2-----------2 -|
|-2----------(2)-|-2----------(2)-|-3-----------3 -|-3----------(3)-|
|-3-------3--(3)-|-3-------3--(3)-|----------------|----------------|
|----------------|----------------|----------------|----------------|

Intro: C     C   
C     C     F     F               
C     CM7   C2    C
C     CM7   C2    C
C     C     F     F              
Ebmaj7   D7sus 
 you

F     F2    C(ii)-C
Ebmaj7   D7sus
F     F2    C(ii)-C
Ebmaj7- F - C2

(bass)|G-F-Ebmaj7-D7sus -Bb-|C     |

C     C
F     F     Ebmaj7   F2
*C    F     G


**(Octaves only in interlude and bridge-see chord list) see RIFF2
Interlude: |D - E/D -D   |D-Eb-C   |G-Ab-F   |F-E-C   |

D     D/E   D                     
D     Eb    C
G - Ab   F                       
F     Gb    Eb    D

C     F     G



F2 -F    C(ii)-C
Ebmaj7   D7sus
F2 -F    C(ii)-C
Ebmaj7 -F - C2
|G6-F-Ebmaj7-D7sus -Bb|
|C             
Ebmaj7   F     C(1/2RIFF1)        

Chords IN ORDER OF APPEARANCE:( in () are the true tones of riff 1):
C: x3201x     Acoustic: x32010
(CM7: x32000)
(C2: x3203x)
F: xx321x     Acoustic: 133211
(  F(b5): xx320x)
( F6: xx323x)
Ebmaj7: xx1333   OR x6878(6)
D7sus: xx0213    OR x5758(5)
F2: xx3213
C(ii): 32013 (still just a C, just adding another 3rd)


Riff 2
|-----------|-----------|------------|-----------|
|-----------|-----------|------------|-----------|
|-7-9-7-----|-7-8-5-----|-12-13-10---|-10-9-5----|
|-----------|-----------|------------|-----------|
|-5-(5)-----|-5-6-3-----|-10-11-8----|--8-7-3----|
|-----------|-----------|------------|-----------|

|-----------|-----------|------------|-----------|---|
|-----------|-----------|------------|-----------|---|
|-7-9-7-----|-7-8-5-----|-12-13-10---|-10-11-8---|-7-|
|-----------|-----------|------------|-----------|---|
|-5-(5)-----|-5-6-3-----|-10-11-8----|--8--9-6---|-5-|
|-----------|-----------|------------|-----------|---|

Comments about this tab

miks - 2005-03-03

Good job, men!
I've been looking for this song. I guess it will be perfect for my sisters wedding :)


Add a comment/correction

Complimentary Christian Ringtones
Dadamobile and CGR have teamed up to bring your favorite Christian artists right to your phone. Sign up today and get 10 complementary ringtones!
Tab Country
Did you know CGR has a sister site w/ country guitar tabs? Well we do! Its called Tab Country. It has a great archive with a lot of country tabs.
Rockin Tabs
Are you looking for a site that has rock guitar tabs? Then Rockintabs.com is the place for you. It is a budding site with many rock guitar tabs. Submit your tab today.
Tab Gallery
Tab Gallery has a compilation of christian, rock, and country tabs all in one place. Come visit us.