Guitar Tabs
song title    band name

Join Us Today!

Don't strum alone...
be a part of the largest online Christian music community. Browse thousands of guitar tabs and chat w/ musicians like yourself.


It's Free!

This tab has not yet been rated for accuracy.Sorry, but you must be logged in to rate this tab.
Click here to log-in, or you can click here to register.
(Registration is free)

All songs owned by corresponding publishing company. If you make copies of any song on this website, be sure to report your usage to CCLI.
Artist: twothirtyeight
Song: Just Dropping (A Line)
CD: Matter Has a Breaking Point
Transcribed by: Grant Tyson


Intro:(the strumming pattern is supa simple if you listen to the cd)

e------------------------
B------------------------
G---------4----2----2----
D----7----5----3----3---- 
A----7----5----3----3----
E----5----3----1----1----

Verse: (the same chords but this time palm muted) i didn't put the 2nd
guitar part on here cuz i couldn't figure it out, sorry. also, each chord
gets 8 strums

e---------------------------
B---------------------------
G---------4----2----2-------
D----5----3----3----3-------
A----5----3----3----3-------
E----7----5----1----1-------

Interlude: 

1st guitar(this is the whole part, you have to figure out how it goes
along with the 2nd guitar)and again the same chords
e----------------------------------------------------------------------------
B----------------------------------------------------------------------------
G----4--2--------44--22---------444--222----------4444--2---let--this---------
D-5--3--1----55--33--11----555--333--333----5555--3333--3----last-one --------
A-5--3--1----55--33--11----555--333--333----5555--3333--3-----ring------------
E-7--5--3----77--55--33----777--555--111----7777--5555--1---------------------

2nd guitar(here the chords that you play in between)
e-------------------------------------
B-------------------------------------
G-----------------10------------------ you play this twice
D--5-------3-------x------------------
A--5-------3-------8------------------
E--7-------5-------x------------------

e-------------------------------------
B-------------------------------------
G--14------12------10-----------------
D--x--------x------x------------------
A--12------10------8------------------
E--x--------x------x------------------

e-------------------------------------
B-------------------------------------
G--14-------12-----2------------------
D--x--------x------1---let-last-------
A--12-------10-----1---one-ring-------
E--x--------x------3------------------

Bridge(ending): these are the chords, each chord gets a whole measure(4 counts)
e-------------------------------------
B--5----------------------------------
G--5------4-------------2-------------
D--5------5------7------3-------------
A--3------5------7------3-------------
E--x------3------5------1-------------


Order:
Intro (1X)alone
Intro (2X)band joins in
Verse (4X)
Interlude
Intro (2X)
Verse (4X)
Bridge/end (4X)


This was my first tab, I hope it at least helped someone out.  Hopefully
I will be putting some more 238 tabs up soon. Have a good day everyone and
GOD BLESS!!

Comments about this tab

No comments/corrections found. Add your own

Complimentary Christian Ringtones
Dadamobile and CGR have teamed up to bring your favorite Christian artists right to your phone. Sign up today and get 10 complementary ringtones!
Tab Country
Did you know CGR has a sister site w/ country guitar tabs? Well we do! Its called Tab Country. It has a great archive with a lot of country tabs.
Rockin Tabs
Are you looking for a site that has rock guitar tabs? Then Rockintabs.com is the place for you. It is a budding site with many rock guitar tabs. Submit your tab today.
Tab Gallery
Tab Gallery has a compilation of christian, rock, and country tabs all in one place. Come visit us.